Song name
# A B C D E F G H I J K L M N O P Q R S T U V W X Y Z

Kutless - Its Like Me tab

Song: It's Like Me
Artist: Kutless
Album:  Sea of Faces
Tuning:  Drop C#

Intro:
E--5-5-3-2~--3-3-2-3/5-5-3-3-2-2--2h3-2-------2-3-5-0-0h2-2h3p2--2b-0--------------------|
B-3---------------------------------------------3-3-3--------------------------------3~--|
G----------------------------------------------------------------------------------------|
D----------------------------------------------------------------------------------------|
A----------------------------------------------------------------------------------------|
E----------------------------------------------------------------------------------------|

Verse:
E|-----------------------------0------------0------------------------------------|
B|-----------------------------0------------0-------------1----------------------|
G|--5-----------------------------------------------------2---5------------------|
D|--5---5--7--5---0--0--0------0--0--0-------(2x)----2--5-----5555555---0000-----|
A|--3---5--5--5---0--0--0------0--0--0--------------------3----5555555---0000----|
E|-------5--5--5---0--0--0------0--0--0--------------------------5555555-- 0000--|

Chorus:
E|-----------------------------------------------------------------------------------|
B|-----------------------------------------------------------------------------------|
G|--------------5555555----------5555------------------------------------------------|
D|--0000000--5555555-5555--5555--00000000--------------------------------------------|
A|--0000000--3333333-5555--3333--00000000--(2x)--------------------------------------|
E|--0000000--------------5555----------00000000--------------------------------------|

(Verse)

(Chorus)

Bridge:
E|--0--------------------------0---------------0--|
B|--1----7----3---------------1----7---3-----3----|
G|--2----9----5---------------2----9---5-----2----|
D|--2----7----5----5---7-----2----7---5-----0-----|
A|--0---------3---- 5---5-----0--------3-----0----|
E|-------------------5---5---------------------0--|

(Chorus 2x)
Tap to rate this tab
 
# A B C D E F G H I J K L M N O P Q R S T U V W X Y Z