Song name
# A B C D E F G H I J K L M N O P Q R S T U V W X Y Z

Kutless - Mary Did You Know tab

I know there are already tabs up for this but i saw some corrections and i thought i 
would add one for Drop D, it adds a little kick :) Thanks to kalep for doing half my work 
for me :D

Acoustic-Standard
Electric-Drop D

INTRO/VERSE

Electric
Clean
E|-------------------------|
B|-----3-----3-----1-----0-|
G|---0-----2-----2-----2---|
D|-2-----0-----2-----1-----|
A|-------------------------|
D|-------------------------|

VERSE (part 2)

Electric
Clean
E|-------------------------|
B|-----3-----3-----1-----0-|
G|---0-----2-----2-----2---|
D|-2-----0-----2-----1-----|
A|-------------------------|
D|-------------------------|

Acoustic

E|---------|
B|---------|
G|-9-7-5-4-|
D|-9-7-5-4-|
A|-7-5-3-2-|
E|---------|

CHORUS

Electric
Distortion
E|-----------------|
B|-----------------|
G|-----------------|
D|-10-12-5-4-2-7-9-|
A|-10-12-5-4-2-7-9-|
D|-10-12-5-4-2-7-9-|

VERSE

Electric

E|--------10--------------------------------------|
B|-8-8-8-8--8-8-8-8-12-8-8-8-8-10-7-7-7-7---------|
G|--9-9-9----9-9-9------9-9-9------9-9-9-9--------|
D|------------------------------------------------|
A|------------------------------------------------|
D|------------------------------------------------|

Acoustic

E|---------|
B|---------|
G|-9-7-5-4-|
D|-9-7-5-4-|
A|-7-5-3-2-|
E|---------|

CHORUS

Electric
Distortion
E|-----------------|
B|-----------------|
G|-----------------|
D|-10-12-5-4-2-7-9-|
A|-10-12-5-4-2-7-9-|
D|-10-12-5-4-2-7-9-|


BRIDGE (part 1)

Electric
Clean
E|-------------------------|
B|-----3-----3-----1-----0-|
G|---0-----2-----2-----2---|
D|-2-----0-----2-----1-----|
A|-------------------------|
D|-------------------------|

BRIDGE (part 2)

Electric
Distortion
E|-----------------------|
B|-----------------------|
G|-----------------------|
D|-10-12-5-4-2-10-12-7-9-|
A|-10-12-5-4-2-10-12-7-9-|
D|-10-12-5-4-2-10-12-7-9-|

VERSE

Electric

E|--------10--------------------------------------|
B|-8-8-8-8--8-8-8-8-12-8-8-8-8-10-7-7-7-7---------|
G|--9-9-9----9-9-9------9-9-9------9-9-9-9--------|
D|------------------------------------------------|
A|------------------------------------------------|
D|------------------------------------------------|

Acoustic

E|---------|
B|---------|
G|-9-7-5-4-|
D|-9-7-5-4-|
A|-7-5-3-2-|
E|---------|

CHORUS
Tap to rate this tab
# A B C D E F G H I J K L M N O P Q R S T U V W X Y Z