Song name
# A B C D E F G H I J K L M N O P Q R S T U V W X Y Z

Kutless - New Years Vow tab

SONG:NEW YEARS VOW
ALBUM:KUTLESS               THIS SONG IS VERY FUN TO PLAY AND THIS SOUNDS 
ARTIST:KUTLESS               RIGHT BUT THE CHORUS IS ???
INTRO AND VERSE
C5   Ab5     G5    Bb5
------------------------------
------------------------------
-5------------------3---------
-5-5--7------5------3-3-------FINGER PICKED
-3----7-7----5-5----1---------
------6------3----------------

C5        G5         Bb5   CHORUS
-----------------------------
-----------------------------
-5------------------3--------HEAVY DIST.
-5---5X---5---------3--5X----
-3--------5--5X-----1--------
----------3------------------


BRIDGE

A5  PALM MUTED

ITS A NEW YEAR THIS ONES DIFFERENT
Tap to rate this tab
 
# A B C D E F G H I J K L M N O P Q R S T U V W X Y Z