Guitaretab - guitar tabs
Song name
# A B C D E F G H I J K L M N O P Q R S T U V W X Y Z

Kutless - Sea Of Faces tab

Album: Sea Of Faces
Artist: Kutless
Number of tracks: 11
Tabbed by: aquaknight3


1. Not What You See
2. All Alone
3. Better For You
4. Sea Of Faces
5. Let You In
6. Passion
7. Perspectives
8. Treason
9. All The Words
10.Troubled Heart
11.Itís Like Me

============================================================================

1. Not What You See

Tuning: guitar 1- Flat and Drop D
        guitar 2- Flat and Drop D

intro: guitar 1
eb------------------------------------------>
Bb------------------------------------------>
Gb-----------5-5-5/7-77----------5-5-5522-2->
Db-22+0-22+0-5-5-5/7-7722+0-22+0-5-5-5522-2->
Ab-22+0-22+0-3-3-3/5-5522+0-22+0-3-3-3300-0->
Db-22+0-22+0-----------22+0-22+0------------>

verse 1: guitar 2
eb---------------------------------------------------------------------->
Bb-3-3-33/5-5-3-33/5-5/8---8-88\7-7-3-3-33/5-5-3-33/5-5/8---8-88/10-10-->
Gb---------------------------------------------------------------------->
Db-0-0-00h2-2-0-00h2-2/5---5-55\4-4-0-0-00h2-2-0-00h2-2/5---5-55/7--7--->
Ab---------------------------------------------------------------------->
Db---------------------------------------------------------------------->
Do you feel the tensions rise Do you know why we always fight

verse 1: guitar 2
/eb---------------------------------------------------------------------->\
|Bb-3-3-33/5-5-3-33/5-5/8---8-88\7-7-3-3-33/5-5-3-33/5-5/8---8-88/10-10-->|
|Gb---------------------------------------------------------------------->|
|Db-0-0-00h2-2-0-00h2-2/5---5-55\4-4-0-0-00h2-2-0-00h2-2/5---5-55/7--7--->|
|Ab---------------------------------------------------------------------->|
|Db---------------------------------------------------------------------->|
|                                                                         |
|verse 1: guitar 1                                                        |
|eb---------------------------------------------------------------------->|
|Bb---------------------------------------------------------------------->|
|Gb-------------------------5-55/7-7------------------------5-5-5522-2-2->|
|Db-2--2--+--0--2--2--+--0--5-55/7-7-2--2--+--0--2--2--+--0-5-5-5522-2-2->|
|Ab-2--2--+--0--2--2--+--0--3-33/5-5-2--2--+--0--2--2--+--0-3-3-3300-0-0->|
\Db-2--2--+--0--2--2--+--0-----------2--2--+--0--2--2--+--0-------------->/
To be better, better than you And you better than me

chorus: guitar 1
eb------------------------------------------------------------------------->
Bb---------------------------------------------------------00000000-------->
Gb---------55552222--------55552222--------5555222255555555222222225555555->
Db-22225555555522222222555555552222222255555555222255555555222222225555555->
Ab-22225555333300002222555533330000222255553333000033333333000000003333333->
Db-22225555--------22225555--------22225555-------------------------------->
I am not what you see, oh no Not much more than a slave I wish to be I am
not what you see Not much more a slave I should be Nothing more, a slave I
will be

---REPEAT INTRO

verse 1: guitar 2
eb---------------------------------------------------------------------->
Bb-3-3-33/5-5-3-33/5-5/8---8-88\7-7-3-3-33/5-5-3-33/5-5/8---8-88/10-10-->
Gb---------------------------------------------------------------------->
Db-0-0-00h2-2-0-00h2-2/5---5-55\4-4-0-0-00h2-2-0-00h2-2/5---5-55/7--7--->
Ab---------------------------------------------------------------------->
Db---------------------------------------------------------------------->
How could I ever think to be more than the One who created me

verse 1: guitar 2
/eb---------------------------------------------------------------------->\
|Bb-3-3-33/5-5-3-33/5-5/8---8-88\7-7-3-3-33/5-5-3-33/5-5/8---8-88/10-10-->|
|Gb---------------------------------------------------------------------->|
|Db-0-0-00h2-2-0-00h2-2/5---5-55\4-4-0-0-00h2-2-0-00h2-2/5---5-55/7--7--->|
|Ab---------------------------------------------------------------------->|
|Db---------------------------------------------------------------------->|
|                                                                         |
|verse 1: guitar 1                                                        |
|eb---------------------------------------------------------------------->|
|Bb---------------------------------------------------------------------->|
|Gb-------------------------5-55/7-7------------------------5-5-5522-2-2->|
|Db-2--2--+--0--2--2--+--0--5-55/7-7-2--2--+--0--2--2--+--0-5-5-5522-2-2->|
|Ab-2--2--+--0--2--2--+--0--3-33/5-5-2--2--+--0--2--2--+--0-3-3-3300-0-0->|
\Db-2--2--+--0--2--2--+--0-----------2--2--+--0--2--2--+--0-------------->/
I watched Him do all that He said, His words were "Be a servant to all"

---REPEAT CHORUS

fill: guitar 1
eb---------------------->
Bb---------------------->
Gb---------------------->
Db-22+0-22+0-22+0-22+0-->
Ab-22+0-22+0-22+0-22+0-->
Db-22+0-22+0-22+0-22+0-->

bridge: guitar 1
eb------------------------------------------------------------------------->
Bb-----------0000000------------------------------0000000------------------>
Gb-5555/-----2222222-3333/--------------5555/-----2222222-5555555/--------->
Db-5555/5555-2222222-3333/5555-22+022+0-5555/5555-2222222-5555555/55555550->
Ab-3333/5555-0000000-3333/5555-22+022+0-3333/5555-0000000-3333333/55555550->
Db------5555--------------5555-22+022+0------5555-----------------55555550->
Only One deserves this exaltation Only One deserves this elevation But even
He, He laid it down to serve on bended knee

chorus: guitar 1
eb------------------------------------------------------------------>
Bb---------------------------------------------------------00000000->
Gb---------55552222--------55552222--------555522225555555522222222->
Db-2222555555552222222255555555222222225555555522225555555522222222->
Ab-2222555533330000222255553333000022225555333300003333333300000000->
Db-22225555--------22225555--------22225555------------------------->
I am not what you see, oh no Not much more than a slave I wish to be I am
not what you see Not much more a slave I should be

chorus: guitar 1
eb------------------------------------------------------------------------->
Bb---------------------------------------------------------00000000-------->
Gb---------55552222--------55552222--------5555222255555555222222225555555->
Db-22225555555522222222555555552222222255555555222255555555222222225555555->
Ab-22225555333300002222555533330000222255553333000033333333000000003333333->
Db-22225555--------22225555--------22225555-------------------------------->
I am not what you see, oh no Not much more than a slave I wish to be I am
not what you see Not much more a slave I should be Nothing more, a slave I
will be

---REPEAT INTRO

============================================================================

2. All Alone

Tuning: guitar 1- Flat and Drop D
        guitar 2- Flat and Drop D

intro: piano and violins

verse 1: piano and violins
icy chills round your heart a heart thatís made of stone it seems like life
is out to get you to destroy what you want

verse 1: guitar 1
eb------------------------------------------------------------------------->
Bb------------------------------------------------------------------------->
Gb------------------------------------------------------------------------->
Db----------/77-5-4~--77-5-4~--5-4-0~-----------/77-5-4~--77-5-4~--5-4-0~-->
Ab-2--2~--------------00-0-0~----------2--2~--------------00-0-0~---------->
Db-----------00-0-0~-----------5-5-5~------------00-0-0~-----------5-5-5~-->
I know that, that you blame Me for all that you go through it could be so
different if you would just let go

chorus: guitar 2
eb-------------0000-------------0000--------------------------------0000--->
Bb-------------0000-------------0000--------------------------------0000--->
Gb-4-4-------2-2222-4-4-------2-2222-4-4----------------4-4-------2-22224~->
Db-4-4--5-5--2-2222-4-4--5-5--2-2222-4-4--5-5--0-000777-4-4--5-5--2-22224~->
Ab-2-2--5-5--0-0000-2-2--5-5--0-0000-2-2--5-5--0-000777-2-2--5-5--0-00002~->
Db------5-5--------------5-5--------------5-5--0-000777------5-5----------->
youíre all alone, running out of ways to hold on to hope, and it always
slips away youíre all alone, but you donít have to pretend to cope, there
is a brighter way

fill: guitar 1
eb------------------------------------>
Bb------------------------------------>
Gb------------------------------------>
Db----------/77-5-4~--77-5-4~--5-4-0~->
Ab-2--2~--------------00-0-0~--------->
Db-----------00-0-0~-----------5-5-5~->

verse 2: guitar 1
eb------------------------------------------------------------------------->
Bb------------------------------------------------------------------------->
Gb------------------------------------------------------------------------->
Db----------/77-5-4~--77-5-4~--5-4-0~-----------/77-5-4~--77-5-4~--5-4-0~-->
Ab-2--2~--------------00-0-0~----------2--2~--------------00-0-0~---------->
Db-----------00-0-0~-----------5-5-5~------------00-0-0~-----------5-5-5~-->
if you would change your perspective youíd see that it is true life is not
always what you want sometimes itís hard to bear

verse 2: guitar 1
eb------------------------------------------------------------------------->
Bb------3-------3-------0-------------------3-------3-------0-------------->
Gb---4---4---4---4---2---2--------7------4---4---4---4---2---2--------7-7-->
Db--4-----4-4-----4-2-----2--0-7---7----4-----4-4-----4-2-----2--0-7---7-7->
Ab-2---------------0----------------5--2---------------0------------------->
Db---------0---------------5-------------------0---------------5----------->
Iíd be with you, and help you in all that you go through I love you, let me
change your heart by coming in

---REPEAT CHORUS

bridge: guitar 2                    gt. 1
eb---------------------------------|------------------------>
Bb---------------------------------|3~~---------3~~--------->
Gb-44447777--------44447777--------|4~~---7~~---4~~---7~~--->
Db-44447777000077774444777700007777|4~~---7~~---4~~---7~~--->
Ab-22225555000077772222555500007777|2~~---5~~---2~~---5~~--->
Db-----555500007777----555500007777|------5~~---------5~~--->
oh, there is a brighter way yeah, there is a brighter way oh, oh oh...

fill: guitar 1
eb--------------------------------------------------->
Bb--------------------------------------------------->
Gb--------------------------------------------------->
Db-222-5-222-5-777770777770-222-5-222-5-777770777770->
Ab-222-5-222-5-777770777770-222-5-222-5-777770777770->
Db-222-5-222-5-777770777770-222-5-222-5-777770777770->
oh, oh, oh...

---REPEAT CHORUS

outro:
eb------------------------------------------------------------------>
Bb------------------------------------------------------------------>
Gb-44447777--------44447777--------44447777--------44447777--------->
Db-4444777700007777444477770000777744447777000077774444777700007777->
Ab-2222555500007777222255550000777722225555000077772222555500007777->
Db-----555500007777----555500007777----555500007777----555500007777->
a way, there is a brighter way yeah, there is a brighter way hold on to
hope there is a brighter way hold on to hope there is a brighter way

============================================================================

3. Better For You

Tuning: guitar 1- Flat and Drop D
        guitar 2- Flat and Drop D

intro: guitar 1
/eb--------------------------------------------------->\
|Bb--------------------------------------------------->|
|Gb--------------------------------------------------->|
|Db-2-22/5-5555-5-555\4-4444/5-5555-5555/9-999\7-77+7->|
|Ab--------------------------------------------------->|
|Db--------------------------------------------------->|
|                                                      |
|intro: guitar 2                                       |
|eb--------------------------------------------------->|
|Bb--------------------------------------------------->|
|Gb------5-5555-------------------5-5555-------------->|
|Db-2-22/5-5555-5-555-0-0000-2-22/5-5555-5-555-0-00+0->|
|Ab-2-22/3-3333-5-555-0-0000-2-22/3-3333-5-555-0-00+0->|
\Db-2-22/-------5-555-0-0000-2-22/-------5-555-0-00+0->/

verse 1: piano
My decision can not be put off again I see the right choice but my heart is
filled with dread It all seems backwards in my head, my head

chorus: guitar 1
/eb------------------------------------------------------------------->\
|Bb------------------------------------------------------------------->|
|Gb------------------------------------------------------------------->|
|Db-222/555555\444/555-5555/999\77+7-222/555555\444/555-5555/999\77+7->|
|Ab------------------------------------------------------------------->|
|Db------------------------------------------------------------------->|
|                                                                      |
|chorus: guitar 2                                                      |
|eb------------------------------------------------------------------->|
|Bb------------------------------------------------------------------->|
|Gb-----5555------------5555-------------5555------------5555--------->|
|Db-222/555555550000222/5555555500+0-222/555555550000222/5555555500+0->|
|Ab-222/333355550000222/3333555500+0-222/333355550000222/3333555500+0->|
\Db-222/----55550000222/----555500+0-222/----55550000222/----555500+0->/
I know it seems too wrong to be right This way is so much harder to fight
But in the end I know it is true This way is better, it's better for you

fill: piano

verse 2: guitar 1 (with piano)
eb------------------------------------------------------------------------->
Bb--5---5--5--5--5--5--5--87--5---5--5--5--5--5--5--87--5-3-5-3-5-3-5-3---->
Gb---7---7--7--7--4--4--4---7--7---7--7--7--4--4--7---7----5-----------2--->
Db--------5--5--7--7--7--7----------5--5--7--7--7--7-----------5---5------->
Ab----7-------------------------7------------------------------------------>
Db------------------------------------------------------------------------->
Choose a little pain and gain a life with joy Accepting pleasure now will
earn a life of pain It all seems backwards in my head,

verse 2: guitar 1 (with piano)
eb-0---0--0--0-->
Bb---1--1--3--3->
Gb----2--2--2--->
Db-------------->
Ab-------------->
Db-------------->
my head

---REPEAT CHORUS

---REPEAT INTRO
   for you...

bridge: guitar 1 (palm mute all) (repeat)
eb------------------------------------------>
Bb------------------------------------------>
Gb-----5-4----2222-5-4----5555-5-4-------4-->
Db-2222---5-2-2222----5-2-5555----5-23333-5->
Ab-2222-------0000--------3333-------3333--->
Db-2222------------------------------3333--->
Sometimes I wonder why it's this way When it's done the burden is gone

bridge: guitar 1 (palm mute all) (repeat)
/eb------------------------------------------>\
|Bb------------------------------------------>|
|Gb-----5-4----2222-5-4----5555-5-4-------4-->|
|Db-2222---5-2-2222----5-2-5555----5-23333-5->|
|Ab-2222-------0000--------3333-------3333--->|
|Db-2222------------------------------3333--->|
|                                             |
|bridge: guitar 2 (repeat)                    |
|eb------------------------------------------>|
|Bb-5~~--------0~~---------0~~--------6~~---->|
|Gb-4~~--------2~~---------5~~--------5~~---->|
|Db-2~~--------2~~---------5~~--------3~~---->|
|Ab------------0~~---------3~~--------------->|
\Db------------------------------------------>/
This discomfort will be taken away As soon as it's over, it's over for me

---REPEAT CHORUS
---REPEAT INTRO
   for you...

outro: guitar 2
eb-------->
Bb-5~~---->
Gb-4~~---->
Db-2~~---->
Ab-2~~---->
Db-2~~---->

============================================================================

4. Sea of Faces

Tuning: guitar 1 (acoustic; capo on first fret)- Drop D
        guitar 2 (capo on first fret)- Drop D 
        guitar 3 (capo on first fret)- Drop D
        guitar 4 (acoustic or a bass)- Drop D

intro: guitar 1 (acoustic)
e-1-11-1-11-1--1-11-1-11-1--5-55-5-66-6--1-11-1-11-1->
B-1-11-1-11-1--4-44-4-44-4--8-88-8-88-8--4-44-4-44-4->
G-3-33-3-33-3--3-33-3-33-3--7-77-7-77-7--3-33-3-33-3->
D-3-33-3-33-3--1-11-1-11-1--5-55-5-55-5--1-11-1-11-1->
A-1-11-1-11-1---------------5-55-5-55-5--1-11-1-11-1->
D---------------------------5-55-5-55-5--1-11-1-11-1->

verse 1: intro repeated twice
I see the city lights all around me Everyone's obscure Ten million people
each with their problems Why should anyone care

pre-chorus: guitar 2 (slightly distorted)
e----------------------------->
B----------------------------->
G----------------------------->
D-5-5-5-8-8-8-1-1-1-1-1-1-1-1->
A-5-5-5-8-8-8-1-1-1-1-1-1-1-1->
D-5-5-5-8-8-8-1-1-1-1-1-1-1-1->
And in Your eyes I can see

chorus: guitar 3 (more distorted)
e------------------------------------------------------------->
B------------------------------------------------------------->
G------------------------------------------------------------->
D-8888-3333-1-1++1-555-3333-8888-3333-1-1++1-555-3333-8~~----->
A-8888-3333-1-1++1-555-3333-8888-3333-1-1++1-555-3333-8~~----->
D-8888-3333-1-1++1-555-3333-8888-3333-1-1++1-555-3333-8~~----->
I am not just a man, vastly lost in this world Lost in a Sea of Faces Your
body's the bread, Your blood is the wine Because you traded Your life for
mine

repeat intro

verse 2: same as verse 1 tab
Sometimes my life it feels so trivial Immersed in the greatness of space
Yet somehow you still find the time for me It's then You show me Your love

pre-chorus 2: same as pre-chorus 1 played twice
And In Your eyes I can see And in Your arms I will be yeah

repeat chorus

bridge:
If only my one heart Was all you'd gain from all it cost Well I

guitar 3
e-------------------------------------------->
B-----------------------444444-666666-------->
G----------------555555-333333-555555-------->
D-++55555-888888-555555-111111-333333-8~~---->
A-++55555-888888-333333---------------8~~---->
D-++55555-888888----------------------8~~---->
know you would have still been a man With a reason To willingly offer your
life

chorus 3:
          guitar 4 (another acoustic)
/e--------------------------------------------------------->\
|B--------------------------------------------------------->|
|G--------------------------------------------------------->|
|D-----3~~---0--------------------------------------------->|
|A--------------3~~---1----0----------1---------------1~~-->|
|D---------------------------1~~-------1--5-5-5-3-3-3------>/
|                                                          /
|         guitar 1                                        /
|e-1-11-1-11-1--1-11-1-11-1--5-55-5-66-6--1-11-1-11-1--> /
|B-1-11-1-11-1--4-44-4-44-4--8-88-8-88-8--4-44-4-44-4-->|
|G-3-33-3-33-3--3-33-3-33-3--7-77-7-77-7--3-33-3-33-3-->|
|D-3-33-3-33-3--1-11-1-11-1--5-55-5-55-5--1-11-1-11-1-->|
|A-1-11-1-11-1---------------5-55-5-55-5--1-11-1-11-1-->|
|D---------------------------5-55-5-55-5--1-11-1-11-1-->|
|                                                       |
|         guitar 3                                      |
|e----------------------------------------------------->|
|B----------------------------------------------------->|
|G----------------------------------------------------->|
|D----------------------------------------------3-3-3-->|
|A----------------------------------------------3-3-3-->|
\D----------------------------------------------3-3-3-->/
I am not just a man, vastly lost in this world Lost in a Sea of Faces

e---------------------------->
B---------------------------->
G---------------------------->
D-8888-3333-1-1++1-555-3333-->
A-8888-3333-1-1++1-555-3333-->
D-8888-3333-1-1++1-555-3333-->
Your body's the bread, Your blood is the wine Because you traded Your life
for mine

repeat first chorus

outro: guitar 3 (r= 10th fret)
e---------------------------------->
B---------------------------------->
G-55555--88888--rrrrr-------------->
D-55555--88888--rrrrr--8~~--------->
A-33333--66666--88888--8~~--------->
D----------------------8~~--------->
Just one in a million faces

============================================================================

5. Let You In

Tuning: guitar 1- Flat and Drop D

intro: (palm mute all)
eb---------------------------------------------------------------------->
Bb---------------------------------------------------------------------->
Gb---------------------------------------------------------------------->
Db-77-22-33-33-3333/77-22-33-33-3333/77-22-33-33-3333/77-22-33-33-3333/->
Ab--------------------------------------00-11-11-1111----00-11-11-1111-->
Db-----------------------------------00---------------00---------------->

intro: (palm mute all)
eb----------------->
Bb----------------->
Gb----------------->
Db-77-22-33-33-333->
Ab----00-11-11-111->
Db-00-------------->

verse 1: (palm mute all)
eb-------------------------------------------------------------------->
Bb-------------------------------------------------------------------->
Gb-------------------------------------------------------------------->
Db-77-22-33-33-333577-22-33-33-3333/77-22-33-33-3333/77-22-33-33-3333->
Ab----00--------------00-11-11-1111----00-11-11-1111----00-11-11-1111->
Db-00----33-33-333500---------------00---------------00--------------->
lying here in this pit that lifeís pushed me down I donít

verse 1:             palm
eb--------------------|mute|----------------------------------------------->
Bb---------------|---|till|---111----------111-----------111--------------->
Gb--------------|V here|222333333----222333333----222-333333----222-------->
Db-77-22-33-33-33355-000222333333-000222333333-000222-333333-0002223333355->
Ab----00---------355-000000111111-000000111111-000000-111111-0000003333355->
Db-00----33-33-33355-000----------000----------000-----------000---3333355->
know just how long I can take or when I might break Iím in needing so
someone please show me the truth

chorus:
eb-00000-11111-00000-11++++-00000-11111----------->
Bb-33333-11111-33333-11++++-33333-11111----------->
Gb-22222-33333-22222-33++++-22222-33333----------->
Db-00000-33333-00000-33++++-00000-33333-5555-3333->
Ab-00000-11111-00000-11++++-00000-11111-5555-3333->
Db-00000-------00000--------00000-------5555-3333->
this need is real in my soul I feel the love you shared thatís why I cant
say no again my thoughts are confused for my sins youíre abused my heart it
screams to open up and let you in

fill:
eb---------------------------------------------------->
Bb---------------------------------------------------->
Gb----------------3----------------3----------------3->
Db-77-22-33-33-3333/77-22-33-33-3333/77-22-33-33-3333->
Ab----00-11-11-1111----00-11-11-1111----00-11-11-1111->
Db-00---------------00---------------00--------------->

verse 2: (palm mute all)
eb-------------------------------------------------------------------->
Bb-------------------------------------------------------------------->
Gb-------------------------------------------------------------------->
Db-77-22-33-33-333577-22-33-33-3333/77-22-33-33-3333/77-22-33-33-3333->
Ab----00--------------00-11-11-1111----00-11-11-1111----00-11-11-1111->
Db-00----33-33-333500---------------00---------------00--------------->
in my mind Iím still fighting to understand nothingís free

verse 2:             palm
eb--------------------|mute|----------------------------------------------->
Bb---------------|---|till|---111----------111-----------111--------------->
Gb--------------|V here|222333333----222333333----222-333333----222-------->
Db-77-22-33-33-33355-000222333333-000222333333-000222-333333-0002223333355->
Ab----00---------355-000000111111-000000111111-000000-111111-0000003333355->
Db-00----33-33-33355-000----------000----------000-----------000---3333355->
but what You offer me so give so freely though it cost You Your life and
inside You show me the truth

---REPEAT CHORUS

fill2:
eb----------------------------------------->
Bb----------------------------------------->
Gb------------------5~------------------5~->
Db-0xx-xx-xxx3~-0xxx5~-0xx-xx-xxx3~-0xxx5~->
Ab-0xx-xx-xxx3~-0xxx3~-0xx-xx-xxx3~-0xxx3~->
Db-0xx-xx-xxx3~-0xxx3~-0xx-xx-xxx3~-0xxx3~->

---REPEAT FILL2
you know I try to do it to be a self made man

bridge:
eb------------------------------------------------------------->
Bb------------------------------------------------------------->
Gb------------------------------------------------------------->
Db-00-00-32-0-3-2-00-00-32-0-3-2-00-00-32-0-3-2-00-00-32-0-3-2->
Ab-00-00-32-0-3-2-00-00-32-0-3-2-00-00-32-0-3-2-00-00-32-0-3-2->
Db-00-00-32-0-3-2-00-00-32-0-3-2-00-00-32-0-3-2-00-00-32-0-3-2->
I tried to place it all upon my back again but this crushing weight was
well beneath the skin panicking for the light an inner struggle I fight but
then I realized that you could be the only way

---REPEAT CHORUS

outro:
eb------------------------------------------------------->
Bb------------------------------------------------------->
Gb------------------------------------------------------->
Db-00-00-32-0-3-2-00-00-32-0-3-2-00-00-32-0-3-2-00-00-00->
Ab-00-00-32-0-3-2-00-00-32-0-3-2-00-00-32-0-3-2-00-00-00->
Db-00-00-32-0-3-2-00-00-32-0-3-2-00-00-32-0-3-2-00-00-00->
let you in let you in let you in

============================================================================

6. Passion

Tuning: guitar 1- Flat and Drop D
        guitar 2- Flat and Drop D

intro: guitar 1
eb-------------------------------------------->
Bb--------------------------5---------5------->
Gb--5-0-4--5-0-5-0-4--5-0----4--5------4--5--->
Db-3~~--------5~~----------5---------5-------->
Ab------------------------0~~----0--0~~----0-->
Db-------------------------------------------->

verse 1: guitar 1
eb-------------------------------------------->
Bb--------------------------5---------5------->
Gb--5-0-4--5-0-5-0-4--5-0----4--5------4--5---> repeat
Db-3~~--------5~~----------5---------5-------->
Ab------------------------0~~----0--0~~----0-->
Db-------------------------------------------->
Within my mind's eye Flickering from the past

verse 1: guitar 1
eb-------------------------1-3~~-------------->
Bb-------------------------------------------->
Gb--5-0-4--5-0-5-0-4--5-0--------------------->
Db-3~~--------5~~---------0~~----------------->
Ab-------------------------------------------->
Db-------------------------------------------->
Come images that terrify and calm A paradox in me

chorus: guitar 2
eb------------------------------------------------->
Bb------------------------------------------------->
Gb-22222-------------------22222------------------->
Db-22222-00000-33333-55555-22222-00000-33333-55555->
Ab-00000-00000-33333-55555-00000-00000-33333-55555->
Db-------00000-33333-55555-------00000-33333-55555->
Nail pierced hands they run with blood A splitting brow forced by the
thorns His face is writhing with the pain yet it's comforting to me

---REPEAT INTRO

verse 2: guitar 1
eb-------------------------------------------->
Bb--------------------------5---------5------->
Gb--5-0-4--5-0-5-0-4--5-0----4--5------4--5---> repeat
Db-3~~--------5~~----------5---------5-------->
Ab------------------------0~~----0--0~~----0-->
Db-------------------------------------------->
He chose to give it all Jesus endured the pain

verse 1: guitar 1
eb-------------------------1-3~~-----3~~------>
Bb-------------------------------------------->
Gb--5-0-4--5-0-5-0-4--5-0--------------------->
Db-3~~--------5~~---------0~~----------------->
Ab-------------------------------------------->
Db-------------------------------------------->
Paying a debt I owed and created a paradox in me

---REPEAT CHORUS

bridge: guitar 2
eb------------------------------------->
Bb------------------------------------->
Gb-----------5~~-----------------5~~--->
Db-0~~--3~~--5~~--5~~--0~~--3~~--5~~--->
Ab-0~~--3~~--3~~--5~~--0~~--3~~--3~~--->
Db-0~~--3~~-------5~~--0~~--3~~-------->
And in my heart I know that You're the only one Who could of came and died,
a sacrifice As Youíre God's only Son

---REPEAT CHORUS
---REPEAT CHOURS

============================================================================

7. Perspectives

Tuning: guitar 1- Flat and Drop D
        guitar 2 (acoustic)- Flat and Drop D
        guitar 3- Flat and Drop D

intro: guitar 1
/eb--------14--15~---------14---15~-----------14--15~---------14--15~----->\
|Bb-12-------15-----12-------15-15~-15-12-------15-----12-------15-------->|
|Gb-----12~-------------12~----------------12~-------------12~--------14~->|
|Db---12--------------12-----------------12--------------12--------------->|
|Ab----------------------------------------------------------------------->|
|Eb----------------------------------------------------------------------->/
|                                                                         /
|intro: guitar 2 (acoustic)                                              /
|eb-3-333-33-0-000-00-0-000-00-0-000-00->                               /
|Bb-3-333-33-3-333-33-3-333-33-3-333-33->                              /
|Gb-0-000-00-0-000-00-0-000-00-0-000-00-> repeat                      /
|Db-0-000-00-0-000-00-2-222-22-0-000-00->                            /
|Ab-2-222-22-3-333-33----------3-333-33->                           /
\Eb-3-333-33---------------------------->__________________________/

verse 1: guitar 1
/eb-------------------------------------------------------------14--15~--->\
|Bb-12~-------------------------------10-12~-----------12---------15------>|
|Gb--------------------------------------------------------12~------------>|
|Db------------------------------------------------------12--------------->|
|Ab----------------------------------------------------------------------->|
|Eb----------------------------------------------------------------------->/
|                                                                         /
|verse 1: guitar 2                                                       /
|eb-3-333-33-0-000-00-0-000-00-0-000-00->                               /
|Bb-3-333-33-3-333-33-3-333-33-3-333-33->                              /
|Gb-0-000-00-0-000-00-0-000-00-0-000-00-> repeat                      /
|Db-0-000-00-0-000-00-2-222-22-0-000-00->                            /
|Ab-2-222-22-3-333-33----------3-333-33->                           /
\Eb-3-333-33---------------------------->__________________________/
it feels like your lifeís crashing down all around you let me ask if itís
really so bad look at the world in itís suffering can you honestly tell me
that

verse 1: guitar 1 (*\= put your pick on that string starting from about in
  between the two pickups on your guitar or wherever that would be and
  scrape with your pick down the string to make a sort of falling sound.)
/eb------------------------------------>\
|Bb------------------------------------>|
|Gb------------------------------------>|
|Db-2-/4-/5-/7---------------------*\-->|
|Ab------------3-3-3-3-3-3-3-3-3-3-*\-->|
|Eb------------------------------------>|
|                                       |
|verse 1: guitar 2                      |
|eb-0-000-00-0-0-000-00-0-000-00-0-000->|
|Bb-3-333-33-3-3-333-33-3-333-33-3-333->|
|Gb-0-000-00-0-0-000-00-2-222-22-2-222->|
|Db-2-222-22-2-2-222-22-0-000-00-0-000->|
|Ab-0-000-00-0-3-333-33---------------->|
|Eb------------------------------------>|
|                                       |
|verse 1: guitar 3                      |
|eb------------------------------------>|
|Bb-1~-1~-1~-1------------------------->|
|Gb-2~-2~-2~-2-5~-5~-5~----------5-5-5->|
|Db-2~-2~-2~-2-5~-5~-5~-3x-x-x-x-5-5-5->|
|Ab-0~-0~-0~-0-3~-3~-3~-3x-x-x-x-3-3-3->|
\Db---------------------3x-x-x-x------->/
no one else could understand all the hurting inside
[ Tab from: http://www.guitaretab.com/k/kutless/52343.html ]
chorus: guitar 3
chorus 2: guitar 1
/eb--------14-----------------------------14------------------------------>\
|Bb-12-------15-----13-12---10-12---12-------15-----10-12-13~---10-12~---->|
|Gb-----12~----14~-------12~-----12~----12~----14~------------------------>|
|Db---12------------------------------12---------------------------------->|
|Ab----------------------------------------------------------------------->|
|Eb----------------------------------------------------------------------->|
|                                                                          |
|chorus 2: guitar 2                                                        |
|eb-3-333-33-0-000-00-0-000-00-0-000-00->                                  |
|Bb-3-333-33-3-333-33-3-333-33-3-333-33->                                  |
|Gb-0-000-00-0-000-00-0-000-00-0-000-00-> repeat                           |
|Db-0-000-00-0-000-00-2-222-22-0-000-00->                                  |
|Ab-2-222-22-3-333-33----------3-333-33->                                  |
|Eb-3-333-33---------------------------->                                  |
|                                                                          |
|chorus 2: guitar 3                                                        |
|eb-5555555-0000000-3333333-3333333-5555555-0000000-3333333-0000000-5~~--->|
|Bb-8888888-3333333-7777777-3333333-8888888-3333333-7777777-0000000-8~~--->|
|Gb-7777777-2222222-5555555-5555555-7777777-2222222-5555555-5555555-7~~--->|
|Db-5555555-0000000-3333333-5555555-5555555-0000000-3333333-5555555-5~~--->|
|Ab-5555555-0000000-3333333-3333333-5555555-0000000-3333333-3333333-5~~--->|
\Db-5555555-0000000-3333333---------5555555-0000000-3333333---------5~~--->/
why cant you see that freedom is sometimes just simply another perspective
away who could you be if your lens was changed for a moment would you still
be the same?

---REPEAT INTRO

verse 2: guitar 1
/eb-------------------------------------------------------------14--15~--->\
|Bb-12~-------------------------------10-12~-----------12---------15---15->|
|Gb--------------------------------------------------------12~------------>|
|Db------------------------------------------------------12--------------->|
|Ab----------------------------------------------------------------------->|
|Eb----------------------------------------------------------------------->/
|                                                                         /
|verse 2: guitar 2                                                       /
|eb-3-333-33-0-000-00-0-000-00-0-000-00->                               /
|Bb-3-333-33-3-333-33-3-333-33-3-333-33->                              /
|Gb-0-000-00-0-000-00-0-000-00-0-000-00-> repeat                      /
|Db-0-000-00-0-000-00-2-222-22-0-000-00->                            /
|Ab-2-222-22-3-333-33----------3-333-33->                           /
\Eb-3-333-33---------------------------->__________________________/
a young child looks through a great stained glass window watching the
people go by everyone seems to be wearing a red coat his mother sees
jackets in 

verse 2: guitar 1
/eb------------------------------------>\
|Bb------------------------------------>|
|Gb------------------------------------>|
|Db-2-/4-/5-/7---------------------*\-->|
|Ab------------3-3-3-3-3-3-3-3-3-3-*\-->|
|Eb------------------------------------>|
|                                       |
|verse 2: guitar 2                      |
|eb-0-000-00-0-0-000-00-0-000-00-0-000->|
|Bb-3-333-33-3-3-333-33-3-333-33-3-333->|
|Gb-0-000-00-0-0-000-00-2-222-22-2-222->|
|Db-2-222-22-2-2-222-22-0-000-00-0-000->|
|Ab-0-000-00-0-3-333-33---------------->|
|Eb------------------------------------>|
|                                       |
|verse 2: guitar 3                      |
|eb------------------------------------>|
|Bb-1~-1~-1~-1------------------------->|
|Gb-2~-2~-2~-2-5~-5~-5~----------5-5-5->|
|Db-2~-2~-2~-2-5~-5~-5~-3x-x-x-x-5-5-5->|
|Ab-0~-0~-0~-0-3~-3~-3~-3x-x-x-x-3-3-3->|
\Db---------------------3x-x-x-x------->/
white now he canít understand why does she see it this way

---REPEAT CHORUS

bridge: guitar 3
eb-2222-0000-33333333-2222-0000-33333333-2222-0000-33333333-3-3-3-3-3-3->
Bb-5555-3333-33333333-5555-3333-33333333-5555-3333-33333333-6-6-6-6-6-6->
Gb-4444-2222-55555555-4444-2222-55555555-4444-2222-55555555-5-5-5-5-5-5->
Db-2222-0000-55555555-2222-0000-55555555-2222-0000-55555555-3-3-3-3-3-3->
Ab-2222------33333333-2222------33333333-2222------33333333-3-3-3-3-3-3->
Db-2222---------------2222---------------2222---------------3-3-3-3-3-3->

chorus 2: guitar 1
/eb--------14-----------------------------14------------------------------>\
|Bb-12-------15----13-12---10-12---12-------15----10-12-13~-10-12~-------->|
|Gb-----12~----14~------12~-----12~----12~----14~------------------------->|
|Db---12-----------------------------12-------------------------------*\-->|
|Ab-------------------------------------------------------------------*\-->|
|Eb----------------------------------------------------------------------->|
|                                                                          |
|chorus 2: guitar 2                                                        |
|eb-3-333-33-0-000-00-0-000-00-0-000-00->                                  |
|Bb-3-333-33-3-333-33-3-333-33-3-333-33->                                  |
|Gb-0-000-00-0-000-00-0-000-00-0-000-00-> repeat                           |
|Db-0-000-00-0-000-00-2-222-22-0-000-00->                                  |
|Ab-2-222-22-3-333-33----------3-333-33->                                  |
|Eb-3-333-33---------------------------->                                  |
|                                                                          |
|chorus 2: guitar 3                                                        |
|eb----------------------------------------------------------------------->|
|Bb----------------------------------------------------------------------->|
|Gb-----------------------------------------------------------------5-5-5->|
|Db--------------------------------------------------------3x-x-x-x-5-5-5->|
|Ab--------------------------------------------------------3x-x-x-x-3-3-3->|
\Db--------------------------------------------------------3x-x-x-x------->/
why canít you see that freedom is sometimes just simply another perspective
away? who could you be if your lens was changed for a moment? would you
still be the same?

---REPEAT CHORUS

============================================================================

8. Treason

Tuning: guitar 1- Flat and Drop D

intro:
eb-------------------------------------------------------------------->
Bb-------------------------------------------------------------------->
Gb-------------------------------------------------------------------->
Db-0-4-++7-0-4-++7-0-4-++7-0-4-++-2424-++7-0-4-++7-0-4-++7-0-4-++-242->
Ab-0-4-++--0-4-++--0-4-++--0-4-++-2424-++--0-4-++--0-4-++--0-4-++-242->
Db-0-4-++--0-4-++--0-4-++--0-4-++-2424-++--0-4-++--0-4-++--0-4-++-242->

verse 1:__________________________________/repeat\
eb-----------------------------------------------|----------->
Bb-------0~~-------------------------------------|----------->
Gb-4~~---2~~-------------------------------------|----------->
Db-4~~---2~~---0-4-++7-0-4-++7-0-4-++7-0-4-++-242|2~~---0~~-->
Ab-2~~---0~~---0-4-++--0-4-++--0-4-++--0-4-++-242|2~~---0~~-->
Db-------------0-4-++--0-4-++--0-4-++--0-4-++-242|2~~---0~~-->
It all starts here with my disgrace I give You my life then I run in haste
In this false life something needs to give

chorus:
eb-------------------------------------------------------------------->
Bb-------------------------------------------------------------------->
Gb----------------------224422---------------------------224422------->
Db-44444/77777-0-+++0-++--44--22++4244444/77777-0-+++0-++--44--22++42->
Ab-44444/77777-0-+++0-++--22--22++4244444/77777-0-+++0-++--22--22++42->
Db-44444/77777-0-+++0-++------22++4244444/77777-0-+++0-++------22++42->
Tell me a reason why this isn't treason Tell me, tell me I'm wrong I swear
I'm back but then it turns out it's only a season So tell me, tell me Iím
wrong

---REPEAT INTRO

verse 2:__________________________________/repeat\
eb-----------------------------------------------|----------->
Bb-------0~~-------------------------------------|----------->
Gb-4~~---2~~-------------------------------------|----------->
Db-4~~---2~~---0-4-++7-0-4-++7-0-4-++7-0-4-++-242|2~~---0~~-->
Ab-2~~---0~~---0-4-++--0-4-++--0-4-++--0-4-++-242|2~~---0~~-->
Db-------------0-4-++--0-4-++--0-4-++--0-4-++-242|2~~---0~~-->
With my two lips I will praise Your name Then I turn around and only curse
and blame I give in strength is thin adding to my shame

---REPEAT CHORUS

fill:
eb------------------------------>
Bb------------------------------>
Gb------------------------------>
Db-7-4-+--2-4-+--2-4-+--2-442xx->
Ab-7-4-+542-4-+542-4-+542-442xx->
Db-7-4-+--2-4-+--2-4-+--2-442xx->

bridge:
eb------5-----5-----5-------------5-----5-----5------------------->
Bb---------------------------------------------------------------->
Gb---------------------------------------------------------------->
Db-4-454-4-454-4-454-7-77222-4-454-4-454-4-454-7-770xx2x~~-------->
Ab-4-454-4-454-4-454-7-77222-4-454-4-454-4-454-7-770xx2x~~-------->
Db-4-454-4-454-4-454-7-77222-4-454-4-454-4-454-7-770xx2x~~--0x~~-->
Your blood it covered all of my sins You changed a traitor into kin In this
false life something needs to give

---REPEAT CHORUS
---REPEAT CHORUS
---REPEAT INTRO

============================================================================

9. All The Words

Tuning: guitar 1- Flat and Drop D
        guitar 2- Flat and Drop D
intro: guitar 1
/eb--55-33-2--0-2-55-33-2--0-2-55-33-2--0-2------00-2--------->\
|Bb-3--------3------------3------------3----22-33-----3-3~~--->|
|Gb----------------------------------------------------------->|
|Db----------------------------------------------------------->|
|Ab----------------------------------------------------------->|
|Db----------------------------------------------------------->|
|                                                              |
|intro: guitar 2 (acoustic)                                    |
|eb--2-22-2222-2-22-2222-2-222-2-22-2222-2-22-2222-2-222-2-22->|
|Bb--3-33-3333-3-33-3333-3-333-3-33-3333-3-33-3333-3-333-3-33->|
|Gb--2-22-2222-2-22-2222-2-222-2-22-2222-2-22-2222-2-222-2-22->|
|Db--0-00-0000-0-00-0000-0-000-0-00-0000-0-00-0000-0-000-0-00->|
|Ab--0-00-0000-0-00-0000-0-000-2-22-2222-2-22-2222-2-222-2-22->|
\Db--0-00-0000-0-00-0000-0-000-------------------------------->/

verse 1: guitar 2
eb-2-22-2222-2-22-2222-2-222-2-22-2222-2-22-2222-2-222-2-22->
Bb-3-33-3333-3-33-3333-3-333-3-33-3333-3-33-3333-3-333-3-33->
Gb-2-22-2222-2-22-2222-2-222-2-22-2222-2-22-2222-2-222-2-22->
Db-0-00-0000-0-00-0000-0-000-0-00-0000-0-00-0000-0-000-0-00-> repeat
Ab-0-00-0000-0-00-0000-0-000-2-22-2222-2-22-2222-2-222-2-22->
Db-0-00-0000-0-00-0000-0-000-------------------------------->
How do I speak of the indescribable to You I will try to explain these
feelings that are true

verse 1: guitar 1 (r= 10th fret)
/eb-7~----------9~------------7~----------9~------------>\
|Bb-8~----------r~------------8~----------r~------------>|
|Gb-7~----------9~------------7~----------9~------------>|
|Db-5~----------7~------------5~----------7~------------>|
|Ab----------------------------------------------------->|
|Db----------------------------------------------------->|
|                                                        |
|verse 1: guitar 2 (r= 10th fret)                        |
|eb-7-77-7777-7-99-9999-9-999-7-77-7777-7-99-9999-9-999->|
|Bb-8-88-8888-8-rr-rrrr-r-rrr-8-88-8888-8-rr-rrrr-r-rrr->|
|Gb-7-77-7777-7-99-9999-9-999-7-77-7777-7-99-9999-9-999->|
|Db-5-55-5555-5-77-7777-7-777-5-55-5555-5-77-7777-7-777->|
|Ab-5-55-5555-5-77-7777-7-777-5-55-5555-5-77-7777-7-777->|
\Db-5-55-5555-5-77-7777-7-777-5-55-5555-5-77-7777-7-777->/
So looking to the sky I will sing and from my heart to You I bring 

chorus: guitars 1 and 2 (t= 11th fret, a= 12th fret)
eb-000000-555555-rrrrrr-555555-000000-555555-rrrrrr-555555->
Bb-333333-888888-aaaaaa-888888-333333-888888-aaaaaa-888888->
Gb-222222-777777-tttttt-777777-222222-777777-tttttt-777777->
Db-000000-555555-999999-555555-000000-555555-999999-555555->
Ab-000000-555555-999999-555555-000000-555555-999999-555555->
Db-000000-555555-999999-555555-000000-555555-999999-555555->
All of the words in all of my life that could never explain and never
describe All of my love, which is nothing to hide so I lift up my hands and
I worship I worship

---REPEAT INTRO
   You...

verse 2: guitar 2
eb-2-22-2222-2-22-2222-2-222-2-22-2222-2-22-2222-2-222-2-22->
Bb-3-33-3333-3-33-3333-3-333-3-33-3333-3-33-3333-3-333-3-33->
Gb-2-22-2222-2-22-2222-2-222-2-22-2222-2-22-2222-2-222-2-22->
Db-0-00-0000-0-00-0000-0-000-0-00-0000-0-00-0000-0-000-0-00-> repeat
Ab-0-00-0000-0-00-0000-0-000-2-22-2222-2-22-2222-2-222-2-22->
Db-0-00-0000-0-00-0000-0-000-------------------------------->
In your presence I forever choose to live I will praise You for it's all I
have to give

verse 1: guitar 1
/eb-7~----------9~------------7~----------9~------------>\
|Bb-8~----------r~------------8~----------r~------------>|
|Gb-7~----------9~------------7~----------9~------------>|
|Db-5~----------7~------------5~----------7~------------>|
|Ab----------------------------------------------------->|
|Db----------------------------------------------------->|
|                                                        |
|verse 1: guitar 2                                       |
|eb-7-77-7777-7-99-9999-9-999-7-77-7777-7-99-9999-9-999->|
|Bb-8-88-8888-8-rr-rrrr-r-rrr-8-88-8888-8-rr-rrrr-r-rrr->|
|Gb-7-77-7777-7-99-9999-9-999-7-77-7777-7-99-9999-9-999->|
|Db-5-55-5555-5-77-7777-7-777-5-55-5555-5-77-7777-7-777->|
|Ab-5-55-5555-5-77-7777-7-777-5-55-5555-5-77-7777-7-777->|
\Db-5-55-5555-5-77-7777-7-777-5-55-5555-5-77-7777-7-777->/
So looking to the sky I will sing and from my heart to You I bring 

---REPEAT CHORUS 

bridge: guitar 1
eb-2~-----------5~------------2~--3-2~----0~------->
Bb-3~-----------8~------------3~----------0~--3-0~->
Gb-4~-----------7~------------2~----------2~------->
Db-4~-----------5~------------0~----------2~-------> repeat
Ab-2~-----------5~------------0~----------0~------->
Db--------------5~------------0~------------------->
By Your grace You let me come talk to You It's not that I'm worthy I thank
you Jesus For the love that You have shown 

chorus 2: first part is piano
eb-000000-555555-rrrrrr-555555->
Bb-333333-888888-aaaaaa-888888->
Gb-222222-777777-tttttt-777777->
Db-000000-555555-999999-555555->
Ab-000000-555555-999999-555555->
Db-000000-555555-999999-555555->
All of the words in all of my life that could never explain and never
describe All of my love, which is nothing to hide so I lift up my hands and
I worship 

---REPEAT CHORUS

eb-2~--->
Bb-3~--->
Gb-2~--->
Db-0~--->
Ab-0~--->
Db-0~--->
 You

============================================================================

10. Troubled Heart

Tuning: guitar 1-Flat and Drop D
        guitar 2-Flat and Drop D

(00:11)
really weird sounding stuff then:

Intro: guitar 1
/eb--------------------------------------------------->\
|Bb-----5/77-5/77---------------5/77-5/77------------->|
|Gb--------------------------------------------------->|
|Db-----2/44-2/44---------------2/44-2/44------------->|
|Ab--------------------------------------------------->|
|Db--------------------------------------------------->|
|                                                      |
|Intro: guitar 2                                       |
|eb--------------------------------------------------->|
|Bb--------------------------------------------------->|
|Gb------------------4-4444--------------------------->|
|Db-44++2h4++2h4+0-004-4444-44++2h4++2h4+7-7-77h9-999->|
|Ab-44++2h4++2h4+0-002-2222-44++2h4++2h4+7-7-77h9-999->|
\Db-44++2h4++2h4+0-002-2222-44++2h4++2h4+7-7-77h9-999->/

Verse 1: guitar 1 (r= 10th fret)
/eb-------555~---------999----------555~---------999------->\
|Bb----------555~---------rrrr~--------555~---------rrrr~-->|
|Gb-------------4~------------------------4~--------------->|
|Db-------------------------------------------------------->|
|Ab-------------------------------------------------------->|
|Db-------------------------------------------------------->|
|                                                           |
|Verse 1: guitar 2                                          |
|eb-------------------------------------------------------->|
|Bb-------------------------------------------------------->|
|Gb-------------------------------------------------------->|
|Db-0-0++0-------4-4++4-------0-0++0-------4-4++4---------->|
|Ab-0-0++0-------4-4++4-------0-0++0-------4-4++4---------->|
\Db-0-0++0-------4-4++4-------0-0++0-------4-4++4---------->/
A screaming man falls to his knees His broken heart, inflicts the pain

Verse 1: guitar 2
eb-------------------------------------------------------->
Bb-------------------------------------------------------->
Gb-------------------------------------------------------->
Db-0-0++0000000-4-4++4444444-0-0++0000000-4-4444-2222222-->
Ab-0-0++0000000-4-4++4444444-0-0++0000000-4-4444-2222222-->
Db-0-0++0000000-4-4++4444444-0-0++0000000-4-4444-2222222-->
He's withdrawn, no one knows his name One mistake, now he's lost in shame

Chorus: guitar 2
eb---------------222----------00000/22222---------------222---------------->
Bb-77777777-33333222-77777777-00000/22222-77777777-33333222-5555-3333-4444->
Gb-66666666-22222444-66666666-22222/44444-66666666-22222444-4444-2222-4444->
Db-44444444-00000444-44444444-22222/44444-44444444-00000444-2222-0000-4444->
Ab-44444444-00000222-44444444-00000/22222-44444444-00000222-2222-0000-2222->
Db-44444444-00000000-44444444-------------44444444-00000000-2222-0000------>
Amidst the pain, you're not alone Though you can't see through the haze His
eyes of love are staring down And He feels your troubled heart

Fill: guitar 1
/eb-------555~---------999----------555~---------999------->\
|Bb----------555~---------rrrr~--------555~---------rrrr~-->|
|Gb-------------4~------------------------4~--------------->|
|Db-------------------------------------------------------->|
|Ab-------------------------------------------------------->|
|Db-------------------------------------------------------->|
|                                                           |
|fill: guitar 2                                             |
|eb-------------------------------------------------------->|
|Bb-------------------------------------------------------->|
|Gb-------------------------------------------------------->|
|Db-0-0++0-------4-4++4-------0-0++0-------4-4++4---------->|
|Ab-0-0++0-------4-4++4-------0-0++0-------4-4++4---------->|
\Db-0-0++0-------4-4++4-------0-0++0-------4-4++4---------->/

verse 2: guitar 1
/eb-------555~---------999----------555~---------999------->\
|Bb----------555~---------rrrr~--------555~---------rrrr~-->|
|Gb-------------4~------------------------4~--------------->|
|Db-------------------------------------------------------->|
|Ab-------------------------------------------------------->|
|Db-------------------------------------------------------->|
|                                                           |
|Verse 2: guitar 2                                          |
|eb-------------------------------------------------------->|
|Bb-------------------------------------------------------->|
|Gb-------------------------------------------------------->|
|Db-0-0++0-------4-4++4-------0-0++0-------4-4++4---------->|
|Ab-0-0++0-------4-4++4-------0-0++0-------4-4++4---------->|
\Db-0-0++0-------4-4++4-------0-0++0-------4-4++4---------->/
Yes it's true, that someone cares Your perfect friend, never leaving you

Verse 1: guitar 2
eb-------------------------------------------------------->
Bb-------------------------------------------------------->
Gb-------------------------------------------------------->
Db-0-0++0000000-4-4++4444444-0-0++0000000-4-4444-2222222-->
Ab-0-0++0000000-4-4++4444444-0-0++0000000-4-4444-2222222-->
Db-0-0++0000000-4-4++4444444-0-0++0000000-4-4444-2222222-->
Strength is gone and you're feeling cold You will know the truth that He
told

---REPEAT CHORUS

Bridge: guitar 2
eb------------------------------------------------------------------------->
Bb------------------------------------------------------------------------->
Gb------------------------------------------------------------------------->
Db-22222222/99999999-77777777-55555555-22222222/99999999-77777777-55555555->
Ab-22222222/99999999-77777777-55555555-22222222/99999999-77777777-55555555->
Db-22222222/99999999-77777777-55555555-22222222/99999999-77777777-55555555->
By Your grace You repair the broken pieces within Somehow You take a man
and make something more out of him

/eb---------------------------------------------------------------------->\
|Bb-----5/77-5/77-------------------------------------------------------->|
|Gb---------------------------------------------------------------------->|
|Db-----2/44-2/44-------------------------------------------------------->|
|Ab---------------------------------------------------------------------->|
|Db---------------------------------------------------------------------->|
|                                                                         |
|Chorus 2: guitar 2                                                       |
|eb-----------------------------00000-22222------------------------------>|
|Bb--------------333333-7777777-00000-22222-7777777-33333-5555-3333------>|
|Gb--------------222222-6666666-22222-44444-6666666-22222-4444-2222-4444->|
|Db-44++2h4++2h4+000000-4444444-22222-44444-4444444-00000-2222-0000-4444->|
|Ab-44++2h4++2h4+000000-4444444-00000-22222-4444444-00000-2222-0000-2222->|
\Db-44++2h4++2h4+000000-4444444-------------4444444-00000-2222-0000------>/
Amidst the pain, you're not alone Though you can't see through the haze His
eyes of love are staring down And He feels your troubled heart

Chorus 3: guitar 1
/eb----------------------------------------------------------------------->\
|Bb-----5/77-5/77----------5/77-5/77-------------------------------------->|
|Gb----------------------------------------------------------------------->|
|Db-----2/44-2/44----------2/44-2/44-------------------------------------->|
|Ab----------------------------------------------------------------------->|
|Db----------------------------------------------------------------------->|
|                                                                          |
|Chorus 3: guitar 2                                                        |
|eb---------------------------------0000-22222---------------------------->|
|Bb--------------33333--------------0000-22222-77777-33333-5555-3333------>|
|Gb--------------22222--------------2222-44444-66666-22222-4444-2222-4444->|
|Db-44++2h4++2h4+00000-44++2h4++2h4+2222-44444-44444-00000-2222-0000-4444->|
|Ab-44++2h4++2h4+00000-44++2h4++2h4+0000-22222-44444-00000-2222-0000-2222->|
\Db-44++2h4++2h4+00000-44++2h4++2h4+-----------44444-00000-2222-0000------>/
Amidst the pain, you're not alone Though you can't see through the haze His
eyes of love are staring down And He feels your troubled heart

============================================================================

11. Itís Like Me

Tuning: guitar 1- Flat and Drop D
        guitar 2- Flat and Drop D
        guitar 3 (acoustic)- Flat and Drop D

intro: guitar 1
/eb--5-5-3-2~--3-3-2-3/5-5-3-3-2-2--2h3-2-------2-3-5-0-0h2-2h3p2--2b-0--->\
|Bb-3-------------------------------------3-3-3------------------------3~->|
|Gb----------------------------------------------------------------------->|
|Db----------------------------------------------------------------------->|
|Ab----------------------------------------------------------------------->|
|Db----------------------------------------------------------------------->|
|                                                                          |
|intro: guitar 2                                                           |
|eb-0-0-0-0-0-0-0-0-0-0-7-7-7-7-7-7-7-7-7-5-5-5-5-333-3-0-0-0-0-0-0-0-0-0->|
|Bb-3-3-3-3-3-3-3-3-3-3-1010101010101010108-8-8-8-333-3-3-3-3-3-3-3-3-3-3->|
|Gb-2-2-2-2-2-2-2-2-2-2-9-9-9-9-9-9-9-9-9-7-7-7-7-555-5-2-2-2-2-2-2-2-2-2->|
|Db-0-0-0-0-0-0-0-0-0-0-7-7-7-7-7-7-7-7-7-5-5-5-5-555-5-0-0-0-0-0-0-0-0-0->|
|Ab-0-0-0-0-0-0-0-0-0-0-7-7-7-7-7-7-7-7-7-5-5-5-5-333-3-0-0-0-0-0-0-0-0-0->|
|Db-0-0-0-0-0-0-0-0-0-0-7-7-7-7-7-7-7-7-7-5-5-5-5-------0-0-0-0-0-0-0-0-0->|
|                                                                          |
|intro: guitar 3 (acoustic)                                                |
|eb-0-0-0-0-0-0-0-0-0-0-7-7-7-7-7-7-7-7-7-5-5-5-5-333-3-0-0-0-0-0-0-0-0-0->|
|Bb-3-3-3-3-3-3-3-3-3-3-1010101010101010108-8-8-8-333-3-3-3-3-3-3-3-3-3-3->|
|Gb-2-2-2-2-2-2-2-2-2-2-9-9-9-9-9-9-9-9-9-7-7-7-7-555-5-2-2-2-2-2-2-2-2-2->|
|Db-0-0-0-0-0-0-0-0-0-0-7-7-7-7-7-7-7-7-7-5-5-5-5-555-5-0-0-0-0-0-0-0-0-0->|
|Ab-0-0-0-0-0-0-0-0-0-0-7-7-7-7-7-7-7-7-7-5-5-5-5-333-3-0-0-0-0-0-0-0-0-0->|
\Db-0-0-0-0-0-0-0-0-0-0-7-7-7-7-7-7-7-7-7-5-5-5-5-------0-0-0-0-0-0-0-0-0->/

verse 1: guitar 1_____________/repeat\
/eb--------------------------0~----0~|----------------------------000-0-0->\
|Bb-------------------------3~----3~-|---1--------1-------0-000-0--------->|
|Gb------------------------2~----2~--|------0--------0-------------------->|
|Db-----------------------0~----0~---|----------0-------0----------------->|
|Ab----------------------0~----0~----|------------------------------------>|
|Db---------------------0~----0~-----|------------------------------------>|
|                                    |                                     |
|verse 1: guitar 2                   |                                     |
|eb-3~~--------------2-2-22-00-0000-0|-0~~-----3~~------------------------>|
|Bb-3~~--------5-----3-3-33-33-3333-3|-1~~-----3~~------------------------>|
|Gb-5~~--------7-----2-2-22-22-2222-2|-2~~-----5~~------------------------>|
|Db-5~~-----5--7--5--0-0-00-00-0000-0|-2~~-----5~~------5-5-55-55-000-0-0->|
|Ab-3~~-----5--5--5--0-0-00-00-0000-0|-0~~-----3~~------5-5-55-55-000-0-0->|
|Db---------5--5--5--0-0-00-00-0000-0|------------------5-5-55-55-000-0-0->|
|                                    |                                     |
|verse 1: guitar 3                   |                                     |
|eb-3-33-3-35-55-5-550-0-00-00-0000-0|-0-00-0-03-33-3-335-5-55-55-000-0-0->|
|Bb-3-33-3-38-88-8-882-2-22-22-2222-2|-1-11-1-13-33-3-338-8-88-88-333-3-3->|
|Gb-5-55-5-57-77-7-773-3-33-33-3333-3|-2-22-2-25-55-5-557-7-77-77-222-2-2->|
|Db-5-55-5-55-55-5-550-0-00-00-0000-0|-2-22-2-25-55-5-555-5-55-55-000-0-0->|
|Ab-3-33-3-35-55-5-550-0-00-00-0000-0|-0-00-0-03-33-3-335-5-55-55-000-0-0->|
\Db---------5-55-5-550-0-00-00-0000-0|------------------5-5-55-55-000-0-0->/
My conversation is leading nowhere And we talk of God but still I don't
share So many times that I just never saw the chance

chorus: guitar 2 and 3
eb-0-0-0-0-0-0-3-3-3-3-3-3-5-5-5-5-33333-3-0-0-0-0-0-0->
Bb-2-2-2-2-2-2-3-3-3-3-3-3-8-8-8-8-33333-3-2-2-2-2-2-2->
Gb-3-3-3-3-3-3-5-5-5-5-5-5-7-7-7-7-55555-5-3-3-3-3-3-3-> repeat
Db-0-0-0-0-0-0-5-5-5-5-5-5-5-5-5-5-55555-5-0-0-0-0-0-0->
Ab-0-0-0-0-0-0-3-3-3-3-3-3-5-5-5-5-33333-3-0-0-0-0-0-0->
Db-0-0-0-0-0-0-------------5-5-5-5---------0-0-0-0-0-0->
It's like me to never see When it came, when it went Now it's gone away
It's so like me to never see When it came, when it went Now it's gone away

verse 2: guitar 1_____________/repeat\
/eb--------------------------0~----0~|----------------------------000-0-0->\
|Bb-------------------------3~----3~-|---1--------1-------0-000-0--------->|
|Gb------------------------2~----2~--|------0--------0-------------------->|
|Db-----------------------0~----0~---|----------0-------0----------------->|
|Ab----------------------0~----0~----|------------------------------------>|
|Db---------------------0~----0~-----|------------------------------------>|
|                                    |                                     |
|verse 2: guitar 2                   |                                     |
|eb-3~~--------------2-2-22-00-0000-0|-0~~-----3~~------------------------>|
|Bb-3~~--------5-----3-3-33-33-3333-3|-1~~-----3~~------------------------>|
|Gb-5~~--------7-----2-2-22-22-2222-2|-2~~-----5~~------------------------>|
|Db-5~~-----5--7--5--0-0-00-00-0000-0|-2~~-----5~~------5-5-55-55-000-0-0->|
|Ab-3~~-----5--5--5--0-0-00-00-0000-0|-0~~-----3~~------5-5-55-55-000-0-0->|
|Db---------5--5--5--0-0-00-00-0000-0|------------------5-5-55-55-000-0-0->|
|                                    |                                     |
|verse 2: guitar 3                   |                                     |
|eb-3-33-3-35-55-5-550-0-00-00-0000-0|-0-00-0-03-33-3-335-5-55-55-000-0-0->|
|Bb-3-33-3-38-88-8-882-2-22-22-2222-2|-1-11-1-13-33-3-338-8-88-88-333-3-3->|
|Gb-5-55-5-57-77-7-773-3-33-33-3333-3|-2-22-2-25-55-5-557-7-77-77-222-2-2->|
|Db-5-55-5-55-55-5-550-0-00-00-0000-0|-2-22-2-25-55-5-555-5-55-55-000-0-0->|
|Ab-3-33-3-35-55-5-550-0-00-00-0000-0|-0-00-0-03-33-3-335-5-55-55-000-0-0->|
\Db---------5-55-5-550-0-00-00-0000-0|------------------5-5-55-55-000-0-0->/
The phone rings with news that he's gone Just the time I shared my heart
was prepared and another soul was won So much truth to tell, I am so glad I
saw the chance 

---REPEAT CHORUS

bridge: guitar 2
eb-0~~-------------------------------0~~---------------------0~~------>
Bb-1~~-------------3~~---------------1~~-------------3~~-----3~~------>
Gb-2~~-----7~~-----5~~---------------2~~-----7~~-----5~~-----2~~------>
Db-2~~-----9~~-----5~~-----5---7~~---2~~-----9~~-----5~~-----0~~------>
Ab-0~~-----7~~-----3~~-----5---5~~---0~~-----7~~-----3~~-----0~~------>
Db---------5~~-------------5---5~~-----------5~~-------------0~~------>
Sometimes I still never see when perfect opportunities come my way Would my
care increase if I truly believed that a life could be saved 

chorus 2: guitar 1           repeat
/eb--5-5-3-2~--3-3-2-3/5-5-3-3-2-2--2h3-2-------2-3-5-0-0h2-2h3p2--2b-0--->\
|Bb-3-------------------------------------3-3-3------------------------3~->|
|Gb----------------------------------------------------------------------->|
|Db----------------------------------------------------------------------->|
|Ab----------------------------------------------------------------------->|
|Db----------------------------------------------------------------------->|
|                                                                          |
|chorus 2: guitar 2          repeat                                        |
|eb-0-0-0-0-0-0-0-0-0-0-3-3-3-3-3-3-3-3-3-5-5-5-5-333-3-0-0-0-0-0-0-0-0-0->|
|Bb-3-3-3-3-3-3-3-3-3-3-3-3-3-3-3-3-3-3-3-8-8-8-8-333-3-3-3-3-3-3-3-3-3-3->|
|Gb-2-2-2-2-2-2-2-2-2-2-5-5-5-5-5-5-5-5-5-7-7-7-7-555-5-2-2-2-2-2-2-2-2-2->|
|Db-0-0-0-0-0-0-0-0-0-0-5-5-5-5-5-5-5-5-5-5-5-5-5-555-5-0-0-0-0-0-0-0-0-0->|
|Ab-0-0-0-0-0-0-0-0-0-0-3-3-3-3-3-3-3-3-3-5-5-5-5-333-3-0-0-0-0-0-0-0-0-0->|
|Db-0-0-0-0-0-0-0-0-0-0-------------------5-5-5-5-------0-0-0-0-0-0-0-0-0->|
|                                                                          |
|chorus 2: guitar 3          repeat                                        |
|eb-0-0-0-0-0-0-0-0-0-0-3-3-3-3-3-3-3-3-3-5-5-5-5-333-3-0-0-0-0-0-0-0-0-0->|
|Bb-3-3-3-3-3-3-3-3-3-3-3-3-3-3-3-3-3-3-3-8-8-8-8-333-3-3-3-3-3-3-3-3-3-3->|
|Gb-2-2-2-2-2-2-2-2-2-2-5-5-5-5-5-5-5-5-5-7-7-7-7-555-5-2-2-2-2-2-2-2-2-2->|
|Db-0-0-0-0-0-0-0-0-0-0-5-5-5-5-5-5-5-5-5-5-5-5-5-555-5-0-0-0-0-0-0-0-0-0->|
|Ab-0-0-0-0-0-0-0-0-0-0-3-3-3-3-3-3-3-3-3-5-5-5-5-333-3-0-0-0-0-0-0-0-0-0->|
\Db-0-0-0-0-0-0-0-0-0-0-------------------5-5-5-5-------0-0-0-0-0-0-0-0-0->/
It's like me to never see When it came, when it went Now it's gone away
It's so like me to never see When it came, when it went Now it's gone away

chorus 2: guitar 1
/eb-----------------------------0~~---->\
|Bb---------------7b-5----------------->|
|Gb--------------------7--------------->|
|Db------------------------------------>|
|Ab------------------------------------>|
|Db------------------------------------>|
|                                       |
|chorus 2: guitar 2                     |
|eb-0-0~~----3-3~~--------------------->|
|Bb-3-3~~----3-3~~--------------------->|
|Gb-2-2~~----5-5~~--------------------->|
|Db-0-0~~----5-5~~--------------------->|
|Ab-0-0~~----3-3~~--------------------->|
|Db-0-0~~------------------------------>|
|                                       |
|chorus 2: guitar 3                     |
|eb-0~~------3~~------5~~------30~~---->|
|Bb-3~~------3~~------8~~-----3-3~~---->|
|Gb-2~~------5~~------7~~----5--2~~---->|
|Db-0~~------5~~------5~~---5---0~~---->|
|Ab-0~~------3~~------5~~--3----0~~---->|
\Db-0~~---------------5~~-------0~~---->/
It's like me to never see When it came, when it went Now it's gone away
It's so like me to never see When it came, when it went Now it's gone away

============================================================================
Related for Sea Of Faces tab