Guitaretab - guitar tabs
Song name
# A B C D E F G H I J K L M N O P Q R S T U V W X Y Z

Kutless - Let You In tab

intro: (palm mute all)
eb---------------------------------------------------------------------->
Bb---------------------------------------------------------------------->
Gb---------------------------------------------------------------------->
Db-77-22-33-33-3333/77-22-33-33-3333/77-22-33-33-3333/77-22-33-33-3333/->
Ab--------------------------------------00-11-11-1111----00-11-11-1111-->
Db-----------------------------------00---------------00---------------->

intro: (palm mute all)
eb----------------->
Bb----------------->
Gb----------------->
Db-77-22-33-33-333->
Ab----00-11-11-111->
Db-00-------------->

verse 1: (palm mute all)
eb-------------------------------------------------------------------->
Bb-------------------------------------------------------------------->
Gb-------------------------------------------------------------------->
Db-77-22-33-33-333577-22-33-33-3333/77-22-33-33-3333/77-22-33-33-3333->
Ab----00--------------00-11-11-1111----00-11-11-1111----00-11-11-1111->
Db-00----33-33-333500---------------00---------------00--------------->
lying here in this pit that lifeís pushed me down I donít

verse 1:             palm
eb--------------------|mute|----------------------------------------------->
Bb-------------------|till|---111----------111-----------111--------------->
Gb--------------|V here|222333333----222333333----222-333333----222-------->
Db-77-22-33-33-33355-000222333333-000222333333-000222-333333-0002223333355->
Ab----00---------355-000000111111-000000111111-000000-111111-0000003333355->
Db-00----33-33-33355-000----------000----------000-----------000---3333355->
know just how long I can take or when I might break Iím in needing so
someone please show me the truth

chorus:
eb-00000-11111-00000-11++++-00000-11111----------->
Bb-33333-11111-33333-11++++-33333-11111----------->
Gb-22222-33333-22222-33++++-22222-33333----------->
Db-00000-33333-00000-33++++-00000-33333-5555-3333->
Ab-00000-11111-00000-11++++-00000-11111-5555-3333->
Db-00000-------00000--------00000-------5555-3333->
this need is real in my soul I feel the love you shared thatís why I cant
say no again my thoughts are confused for my sins youíre abused my heart it
screams to open up and let you in
[ Tab from: http://www.guitaretab.com/k/kutless/54837.html ]
fill:
eb---------------------------------------------------->
Bb---------------------------------------------------->
Gb----------------3----------------3----------------3->
Db-77-22-33-33-3333/77-22-33-33-3333/77-22-33-33-3333->
Ab----00-11-11-1111----00-11-11-1111----00-11-11-1111->
Db-00---------------00---------------00--------------->

verse 2: (palm mute all)
eb-------------------------------------------------------------------->
Bb-------------------------------------------------------------------->
Gb-------------------------------------------------------------------->
Db-77-22-33-33-333577-22-33-33-3333/77-22-33-33-3333/77-22-33-33-3333->
Ab----00--------------00-11-11-1111----00-11-11-1111----00-11-11-1111->
Db-00----33-33-333500---------------00---------------00--------------->
in my mind Iím still fighting to understand nothingís free

verse 2:             palm
eb--------------------|mute|----------------------------------------------->
Bb-------------------|till|---111----------111-----------111--------------->
Gb--------------|V here|222333333----222333333----222-333333----222-------->
Db-77-22-33-33-33355-000222333333-000222333333-000222-333333-0002223333355->
Ab----00---------355-000000111111-000000111111-000000-111111-0000003333355->
Db-00----33-33-33355-000----------000----------000-----------000---3333355->
but what You offer me so give so freely though it cost You Your life and
inside You show me the truth

---REPEAT CHORUS

fill2:
eb----------------------------------------->
Bb----------------------------------------->
Gb------------------5~------------------5~->
Db-0xx-xx-xxx3~-0xxx5~-0xx-xx-xxx3~-0xxx5~->
Ab-0xx-xx-xxx3~-0xxx3~-0xx-xx-xxx3~-0xxx3~->
Db-0xx-xx-xxx3~-0xxx3~-0xx-xx-xxx3~-0xxx3~->

---REPEAT FILL2
you know I try to do it to be a self made man

bridge:
eb------------------------------------------------------------->
Bb------------------------------------------------------------->
Gb------------------------------------------------------------->
Db-00-00-32-0-3-2-00-00-32-0-3-2-00-00-32-0-3-2-00-00-32-0-3-2->
Ab-00-00-32-0-3-2-00-00-32-0-3-2-00-00-32-0-3-2-00-00-32-0-3-2->
Db-00-00-32-0-3-2-00-00-32-0-3-2-00-00-32-0-3-2-00-00-32-0-3-2->
I tried to place it all upon my back again but this crushing weight was
well beneath the skin panicking for the light an inner struggle I fight but
then I realized that you could be the only way

---REPEAT CHORUS

outro:
eb------------------------------------------------------->
Bb------------------------------------------------------->
Gb------------------------------------------------------->
Db-00-00-32-0-3-2-00-00-32-0-3-2-00-00-32-0-3-2-00-00-00->
Ab-00-00-32-0-3-2-00-00-32-0-3-2-00-00-32-0-3-2-00-00-00->
Db-00-00-32-0-3-2-00-00-32-0-3-2-00-00-32-0-3-2-00-00-00->
let you in let you in let you in
Related for Let You In tab