Guitaretab - guitar tabs
Song name
# A B C D E F G H I J K L M N O P Q R S T U V W X Y Z

Kutless - Treason tab

intro:
eb-------------------------------------------------------------------->
Bb-------------------------------------------------------------------->
Gb-------------------------------------------------------------------->
Db-0-4-++7-0-4-++7-0-4-++7-0-4-++-2424-++7-0-4-++7-0-4-++7-0-4-++-242->
Ab-0-4-++--0-4-++--0-4-++--0-4-++-2424-++--0-4-++--0-4-++--0-4-++-242->
Db-0-4-++--0-4-++--0-4-++--0-4-++-2424-++--0-4-++--0-4-++--0-4-++-242->

verse 1:__________________________________/repeat\
eb-----------------------------------------------|----------->
Bb-------0~~-------------------------------------|----------->
Gb-4~~---2~~-------------------------------------|----------->
Db-4~~---2~~---0-4-++7-0-4-++7-0-4-++7-0-4-++-242|2~~---0~~-->
Ab-2~~---0~~---0-4-++--0-4-++--0-4-++--0-4-++-242|2~~---0~~-->
Db-------------0-4-++--0-4-++--0-4-++--0-4-++-242|2~~---0~~-->
It all starts here with my disgrace I give You my life then I run in haste In this false 
something needs to give
[ Tab from: http://www.guitaretab.com/k/kutless/55974.html ]
chorus:
eb-------------------------------------------------------------------->
Bb-------------------------------------------------------------------->
Gb----------------------224422---------------------------224422------->
Db-44444/77777-0-+++0-++--44--22++4244444/77777-0-+++0-++--44--22++42->
Ab-44444/77777-0-+++0-++--22--22++4244444/77777-0-+++0-++--22--22++42->
Db-44444/77777-0-+++0-++------22++4244444/77777-0-+++0-++------22++42->
Tell me a reason why this isn't treason Tell me, tell me I'm wrong
I swear I'm back but then it turns out it's only a season So tell me, tell me Iím wrong

---REPEAT INTRO

verse 2:__________________________________/repeat\
eb-----------------------------------------------|----------->
Bb-------0~~-------------------------------------|----------->
Gb-4~~---2~~-------------------------------------|----------->
Db-4~~---2~~---0-4-++7-0-4-++7-0-4-++7-0-4-++-242|2~~---0~~-->
Ab-2~~---0~~---0-4-++--0-4-++--0-4-++--0-4-++-242|2~~---0~~-->
Db-------------0-4-++--0-4-++--0-4-++--0-4-++-242|2~~---0~~-->
With my two lips I will praise Your name Then I turn around and only curse and blame I 
in strength is thin adding to my shame

---REPEAT CHORUS

fill:
eb------------------------------>
Bb------------------------------>
Gb------------------------------>
Db-7-4-+--2-4-+--2-4-+--2-442xx->
Ab-7-4-+542-4-+542-4-+542-442xx->
Db-7-4-+--2-4-+--2-4-+--2-442xx->

bridge:
eb------5-----5-----5-------------5-----5-----5------------------->
Bb---------------------------------------------------------------->
Gb---------------------------------------------------------------->
Db-4-454-4-454-4-454-7-77222-4-454-4-454-4-454-7-770xx2x~~-------->
Ab-4-454-4-454-4-454-7-77222-4-454-4-454-4-454-7-770xx2x~~-------->
Db-4-454-4-454-4-454-7-77222-4-454-4-454-4-454-7-770xx2x~~--0x~~-->
Your blood it covered all of my sins You changed a traitor into kin In this false life 
needs to give

---REPEAT CHORUS
---REPEAT CHORUS
---REPEAT INTRO
Related for Treason tab