Song name
# A B C D E F G H I J K L M N O P Q R S T U V W X Y Z

Kutless - Strong Tower tab

Artist: Kutlass
Title: Strong Tower
Tuning: Standard


Gtr.1 – Electric - Right Speaker
Gtr.2 – Electric - Left  Speaker
Gtr.3 – Acoustic - Both  Speakers


(Gtrs.1&2 sounds better when they’re not changed for a CAPO this way, but it’s easier to 
the chords for Gtr.3 with a CAPO on the 2nd fret)


-Verse-
 Gtr.1 (clean)
|---------------------------------|-------------------------4-4-2-2-|
|-4-4-4-4-5-5-2-2-0-0-0-0-0-0-0-0-|-4-4-4-4-5-5-2-2-0-0-0-0-0-0-0-0-|
|-4-4-4-4-4-4-4-4-4-4-4-4-4-4-4-4-|-4-4-4-4-4-4-4-4-4-4-4-4-4-4-4-4-|
|---------------------------------|---------------------------------|
|---------------------------------|---------------------------------|
|---------------------------------|---------------------------------|
|Gtr.2 (clean)                                                      |
|---------------------------------|-------------------------4-4-2-2-|
|-4-4-----2-2-5-5-2-2-2-2-2-2-2-2-|-4-4-----2-2-5-5-2-2-2-2-5-5-5-5-|
|-4-4-4-4-2-2-2-2-1-1-1-1-1-1-1-1-|-4-4-4-4-2-2-2-2-1-1-1-1-4-4-4-4-|
|-----4-4-------------------------|-----4-4-------------------------|
|---------------------------------|---------------------------------|
|---------------------------------|---------------------------------|

-Verse-
  Gtr.1 (clean)
||---------------------------------|-------------------------4-4-2-2-||
||-4-4-4-4-5-5-2-2-0-0-0-0-0-0-0-0-|-4-4-4-4-5-5-2-2-0-0-0-0-0-0-0-0-||
||-4-4-4-4-4-4-4-4-4-4-4-4-4-4-4-4-|-4-4-4-4-4-4-4-4-4-4-4-4-4-4-4-4-||
||---------------------------------|---------------------------------||
||---------------------------------|---------------------------------||
||---------------------------------|---------------------------------||
| Gtr.2 (clean)                                                       |
||---------------------------------|-------------------------4-4-2-2-||
||-4-4-----2-2-5-5-2-2-2-2-2-2-2-2-|-4-4-----2-2-5-5-2-2-2-2-5-5-5-5-||
||-4-4-4-4-2-2-2-2-1-1-1-1-1-1-1-1-|-4-4-4-4-2-2-2-2-1-1-1-1-4-4-4-4-|| [2x]
||-----4-4-------------------------|-----4-4-------------------------||
||---------------------------------|---------------------------------||
||---------------------------------|---------------------------------||
| Gtr.3                                                               |
||-x-x-x-x-x-x-x-x-x-x-x-x-x-x-x-x-|-x-x-x-x-x-x-x-x-x-x-x-x-x-x-x-x-||
||-4-4-4-4-x-x-x-x-5-5-5-5-5-5-5-5-|-4-4-4-4-x-x-x-x-5-5-5-5-5-5-5-5-||
||-4-4-4-4-6-6-6-6-6-6-6-6-6-6-6-6-|-4-4-4-4-6-6-6-6-6-6-6-6-6-6-6-6-||
||-4-4-4-4-7-7-7-7-6-6-6-6-6-6-6-6-|-4-4-4-4-7-7-7-7-6-6-6-6-6-6-6-6-||
||-2-2-2-2-7-7-7-7-4-4-4-4-4-4-4-4-|-2-2-2-2-7-7-7-7-4-4-4-4-4-4-4-4-||
||-x-x-x-x-5-5-5-5-x-x-x-x-x-x-x-x-|-x-x-x-x-5-5-5-5-x-x-x-x-x-x-x-x-||

-Pre-Chorus-
 Gtr.1 (dist.)
|---------------------------------|----------------------------|
|---------------------------------|----------------------------|
|---------------------------------|----------------------------|
|-4-4-4-4-4-4-6-6-2-2-2-2-2-2-6-6-|-4-4-4-4-4-4-6-6-2-2-2-2-2~-|
|-4-4-4-4-4-4-6-6-2-2-2-2-2-2-6-6-|-4-4-4-4-4-4-6-6-2-2-2-2-2~-|
|-2-2-2-2-2-2-4-4-0-0-0-0-0-0-4-4-|-2-2-2-2-2-2-4-4-0-0-0-0-0~-|
| * * * * * * * * * * * * * * * *   * * * * * * * * * * * *    |
|Gtr.2 (dist.)                                                 |
|---------------------------------|----------------------------|
|---------------------------------|----------------------------|
|---------------------------------|----------------------------|
|-4-4-4-4-4-4-6-6-2-2-2-2-2-2-6-6-|-4-4-4-4-4-4-6-6-2-2-2-2-2~-|
|---------------------------------|----------------------------|
|---------------------------------|----------------------------|
|Gtr.3                                                         |
|---------------------------------|----------------------------|
|---------------------------------|----------------------------|
|---------------------------------|----------------------------|
|-4-4-4-4-4-4-6-6-2-2-2-2-2-2-6-6-|-4-4-4-4-4-4-6-6-2-2-2-2-2~-|
|-4-4-4-4-4-4-6-6-2-2-2-2-2-2-6-6-|-4-4-4-4-4-4-6-6-2-2-2-2-2~-|
|-2-2-2-2-2-2-4-4-0-0-0-0-0-0-4-4-|-2-2-2-2-2-2-4-4-0-0-0-0-0~-|

-Chorus-
 Gtr.1 (dist.)
|---------------------------------|---------------------------------|
|---------------------------------|---------------------------------|
|-1-1-1-1-1-1-1-1-6-6-6-6-6-6-6-6-|-6-6-6-6-6-6-6-6-6-6-6-6-6-6-6-6-|
|-2-2-2-2-2-2-2-2-6-6-6-6-6-6-6-6-|-7-7-7-7-7-7-7-7-7-7-7-7-7-7-7-7-|
|-2-2-2-2-2-2-2-2-4-4-4-4-4-4-4-4-|-7-7-7-7-7-7-7-7-7-7-7-7-7-7-7-7-|
|-0-0-0-0-0-0-0-0-----------------|-5-5-5-5-5-5-5-5-5-5-5-5-5-5-5-5-|
|Gtr.2 (dist.)                                                      |
|-----------------------------------------|-------------------------|
|-----------------------------------------|-------------------------|
|-13131313131313/14\1311/1313131313131313-|-9999991111---9999991111-|
|-x-x-x-x-x-x-x--------x---x-x-x-x-x-x-x--|-xxxxxxx-x----xxxxxxx-x--|
|-11111111111111/12\11-9/1111111111111111-|-7777779-9----7777779-9--|
|-----------------------------------------|-------------------------|
|Gtr.3                                                              |
|-0-0-0-0-0-0-0-0-x-x-x-x-x-x-x-x-|-x-x-x-x-x-x-x-x-x-x-x-x-x-x-x-x-|
|-0-0-0-0-0-0-0-0-5-5-5-5-5-5-5-5-|-x-x-x-x-x-x-x-x-x-x-x-x-x-x-x-x-|
|-1-1-1-1-1-1-1-1-6-6-6-6-6-6-6-6-|-6-6-6-6-6-6-6-6-6-6-6-6-6-6-6-6-|
|-2-2-2-2-2-2-2-2-6-6-6-6-6-6-6-6-|-7-7-7-7-7-7-7-7-7-7-7-7-7-7-7-7-|
|-2-2-2-2-2-2-2-2-4-4-4-4-4-4-4-4-|-7-7-7-7-7-7-7-7-7-7-7-7-7-7-7-7-|
|-0-0-0-0-0-0-0-0-x-x-x-x-x-x-x-x-|-5-5-5-5-5-5-5-5-5-5-5-5-5-5-5-5-|

 Gtr.1 (dist.)
|---------------------------------|---------------------------------|
|---------------------------------|---------------------------------|
|-1-1-1-1-1-1-1-1-6-6-6-6-6-6-6-6-|-6-6-6-6-6-6-6-6---4-4--6-6------|
|-2-2-2-2-2-2-2-2-6-6-6-6-6-6-6-6-|-7-7-7-7-7-7-7-7---4-4--6-6--7---|
|-2-2-2-2-2-2-2-2-4-4-4-4-4-4-4-4-|-7-7-7-7-7-7-7-7---2-2--4-4--7---|
|-0-0-0-0-0-0-0-0-----------------|-5-5-5-5-5-5-5-5-------------5---|
|Gtr.2 (dist.)                                                      |
|-----------------------------------------|-------------------------|
|-----------------------------------------|-------------------------|
|-13131313131313/14\1311/1313131313131313-|-99999999--11-11-13-13-9-|
|-x-x-x-x-x-x-x--------x---x-x-x-x-x-x-x--|-xxxxxxxx--x--x--x--x--x-|
|-11111111111111/12\11-9/1111111111111111-|-77777777--9--9--11-11-7-|
|-----------------------------------------|-------------------------|
|Gtr.3                                                              |
|-0-0-0-0-0-0-0-0-x-x-x-x-x-x-x-x-|-x-x-x-x-x-x-x-x-----------------|
|-0-0-0-0-0-0-0-0-5-5-5-5-5-5-5-5-|-x-x-x-x-x-x-x-x---4-4--5-5--2-2-|
|-1-1-1-1-1-1-1-1-6-6-6-6-6-6-6-6-|-6-6-6-6-6-6-6-6---4-4--6-6--2-2-|
|-2-2-2-2-2-2-2-2-6-6-6-6-6-6-6-6-|-7-7-7-7-7-7-7-7---4-4--6-6--2-2-|
|-2-2-2-2-2-2-2-2-4-4-4-4-4-4-4-4-|-7-7-7-7-7-7-7-7---2-2--4-4--0-0-|
|-0-0-0-0-0-0-0-0-x-x-x-x-x-x-x-x-|-5-5-5-5-5-5-5-5-----------------|

-Verse 2- [2x]

-Pre-Chorus-

-Chorus-

-Pre-Chorus- (only drums, no guitar)

-Chorus- [2x]
Tap to rate this tab
# A B C D E F G H I J K L M N O P Q R S T U V W X Y Z