Song name
# A B C D E F G H I J K L M N O P Q R S T U V W X Y Z

Kutless - Hearts Of The Innocent tab

Tabbed by:joshiscrippled
Email:joshiscrippled@yahoo.com

Tuning: Drop D

Intro
e|------------------------------------------------------------------|
B|------------------------------------------------------------------|
G|------------------------------------------------------------------|
D|--0-2-0-2-0-2--5-5---0-2-0-2-0-2-0-2--7-7---0-2-0-2-0-2-0-2--5-5--|
A|--0-2-0-2-0-2--5-5---0-2-0-2-0-2-0-2--7-7---0-2-0-2-0-2-0-2--5-5--|
D|--0-2-0-2-0-2--5-5---0-2-0-2-0-2-0-2--7-7---0-2-0-2-0-2-0-2--5-5--|
                                                                     x2
e|------------------------------------------------------------------|
B|------------------------------------------------------------------|
G|------------------------------------------------------------------|
D|--10-10-10-10---7-7-----------------------------------------------|
A|--10-10-10-10---7-7-PM--------------------------------------------|
D|--10-10-10-10---7-7-----------------------------------------------|

Reapeat intro

Verse: Guitar #1
e|--0-------0-------------------------------------------------------|
B|----3-------3-----------------------------------------------------|
G|------0-------2-----0-4-------------------------------------------|
D|------------------2-----------------------------------------------|x2
A|------------------------------------------------------------------|
D|------------------------------------------------------------------|

Verse: Guitar #2
e|------------------------------------------------------------------|
B|------------------------------------------------------------------|
G|------------------------------------------------------------------|
D|------------------------7-7--0-0--2-2-----------------------------|x2
A|------------------------7-7--0-0--2-2-PM--------------------------|
D|------------------------7-7--0-0--2-2-----------------------------|

Pre-Chorus: Guitar #1
e|------7-------------10------------7-----7-6-----------------------|
B|--8-------8-----8--------8----8-----------------------------------|
G|----9---9---9-----9----9---9----9---9-----------------------------|
D|------------------------------------------------------------------|
A|------------------------------------------------------------------|
D|------------------------------------------------------------------|

Pre-Chorus: Guitar #2
e|------------------------------------------------------------------|
B|------------------------------------------------------------------|
G|------------------------------------------------------------------|
D|--10------------7-------------10------------2-4-5-7-4-0-2---------|
A|--10-x6---------7-x6----------10-x6---------2-4-5-7-4-0-2---------|
D|--10------------7-------------10------------2-4-5-7-4-0-2---------|

Chorus: This is Guitar #2, Guitar #1 is playin a rift, but I can't hear it well
e|----------------------------------------------------------------|
B|----------------------------------------------------------------|
G|----------------------------------------------------------------|
D|-2--2--2-2-2-2-2-2-5--5--5-5-5-5-5-5-10--10--10-10-10-10-10-10--|
A|-2--2--2-2-2-2-2-2-5--5--5-5-5-5-5-5-10--10--10-10-10-10-10-10--|
D|-2--2--2-2-2-2-2-2-5--5--5-5-5-5-5-5-10--10--10-10-10-10-10-10--|
                                                                      x2
------------------------------------------------------------------|
------------------------------------------------------------------|
------------------------------------------------------------------|
--0-2-0-2-0-2-0-2--5-5--------------------------------------------|
--0-2-0-2-0-2-0-2--5-5--------------------------------------------|
--0-2-0-2-0-2-0-2--5-5--------------------------------------------|

Chorus: Play this on the third time you go through the strumming
e|---------------------------------------------------------------|
B|---------------------------------------------------------------|
G|---------------------------------------------------------------|
D|-2--2--2-2-2-2-2-2-5--5--5-5-5-5-5-5-10--10--10--10--7--7------|
A|-2--2--2-2-2-2-2-2-5--5--5-5-5-5-5-5-10--10--10--10--7--7------|
D|-2--2--2-2-2-2-2-2-5--5--5-5-5-5-5-5-10--10--10--10--7--7------|

After you finish the Chorus, just repeat the Verse, Pre-Chorus and Chorus.

This is played before Guitar #1's solo by Guitar #2
e|----------------------------------------------------------------------|
B|----------------------------------------------------------------------|
G|----------------------------------------------------------------------|
D|--0-2-0-2-0-2-5--5--0-2-0-2-7--7--0-2-0-2-0-2-0-2--5-5--10-----7------|
A|--0-2-0-2-0-2-5--5--0-2-0-2-7--7--0-2-0-2-0-2-0-2--5-5--10-x8--7-x8---|
D|--0-2-0-2-0-2-5--5--0-2-0-2-7--7--0-2-0-2-0-2-0-2--5-5--10-----7------|

Solo: Guitar #1
e|------------------------------------------------------------------------|
B|--11b------------------------------11b------------------------------12--|
G|------14--12--12h14-12--9--12----------14--12--12h14--12-9-------14-----|
D|-------------------------------14-----------------------------14--------|
A|------------------------------------------------------------------------|
D|------------------------------------------------------------------------|

---------------------------------------------------------------|
--------12-------12-13-12---------12----12---------------------|
-----14-------14----------12---14------------------------------|
--14-------14----------------14------14-----2-4-5-7-4-0-2------|
--------------------------------------------2-4-5-7-4-0-2------|
--------------------------------------------2-4-5-7-4-0-2------|

Play the Chorus after the solo ends, and then after you finish playing the solo play this to end the song


e|---------------------------------------------------------------|
B|---------------------------------------------------------------|
G|---------------------------------------------------------------|
D|-2--2--2-2-2-2-2-2-5--5--5-5-5-5-5-5-10--10--7--7--------------|
A|-2--2--2-2-2-2-2-2-5--5--5-5-5-5-5-5-10--10--7--7--------------|
D|-2--2--2-2-2-2-2-2-5--5--5-5-5-5-5-5-10--10--7--7--------------|

e|------------------------------------------------------------------|
B|------------------------------------------------------------------|
G|------------------------------------------------------------------|
D|-2-4-5-7-4-0------------------------------------------------------|x3
A|-2-4-5-7-4-0------------------------------------------------------|
D|-2-4-5-7-4-0------------------------------------------------------|


| /  slide up
| \  slide down
| h  hammer-on
| p  pull-off
| ~  vibrato
| +  harmonic
| x  Mute note
Tap to rate this tab
 
# A B C D E F G H I J K L M N O P Q R S T U V W X Y Z