Guitaretab - guitar tabs
Song name
# A B C D E F G H I J K L M N O P Q R S T U V W X Y Z

Kutless - Shut Me Out Acoustic tab

Artist: Kutless
Title: Shut Me Out (acoustic)
Album: Hearts of the Inoocent

Drop Db

*please note this is only the tab for the main guitar. I should be able to figure out
other one soon, though. Also, the power chords are the same for both versions (i just like
better), so you can combine this tab and the other version that has already been posted 
probably have the majority of the song. Have fun!

Intro:

Eb|--------------------------------------------------------|
Bb|--------------------------------------------------------|
Gb|--------------------------------------------------------|
Db|--------------------------------------------------------|  x2
Ab|-0-0--5p0-0-0--0-0--5p0-0-0--0-0--5p0-0-0---8-888-1010--|
Db|-0-0-----5-5---0-0-----5-5---0-0-----5-5----8-888-1010--|

Verse 1:

Eb|----------------------------------|------------------|
Bb|----------------------------------|------------------|
Gb|----------------------------------|------------------|
Db|----------------------------------|------------------|
Ab|-10101010101010101010101010101010-|-8888888888888888-|
Db|-10101010101010101010101010101010-|-8888888888888888-|

Eb|------------------|------------------|------------------|
Bb|------------------|------------------|------------------|
Gb|------------------|------------------|------------------|
Db|------------------|------------------|------------------|
Ab|-5555555555555555-|-5555555555555555-|-5555555555555555-|
Db|-5555555555555555-|-5555555555555555-|-5555555555555555-|
[ Tab from: http://www.guitaretab.com/k/kutless/71629.html ]
Eb|------------------|------------------|
Bb|------------------|------------------|
Gb|------------------|------------------|
Db|------------------|------------------|
Ab|-3333333333333333-|-1111111111111111-|
Db|-3333333333333333-|-1111111111111111-|

PreChorus:

Eb|-------------|-----|-----|--------|
Bb|-------------|-----|-----|--------|
Gb|-------------|-----|-----|--------|
Db|-111-333-555-|-555-|-888-|-10-----|
Ab|-111-333-555-|-555-|-888-|-10-----|
Db|-111-333-555-|-555-|-888-|-10-----|
                              let ring...

Chorus:

Eb|--------------------------------------------------------|
Bb|--------------------------------------------------------|
Gb|--------------------------------------------------------|
Db|--------------------------------------------------------|  x2
Ab|-0-0--5p0-0-0--0-0--5p0-0-0--0-0--5p0-0-0---8-888-1010--|
Db|-0-0-----5-5---0-0-----5-5---0-0-----5-5----8-888-1010--|

Verse 2
Prechorus
Chorus

Interlude:

Eb|------------------|-----------------------|
Bb|------------------|-----------------------|
Gb|------------------|-----------------------|
Db|-8888888888888888-|-55555555-555-333-1010-| x2
Ab|-8888888888888888-|-55555555-555-333-1010-|
Db|------------------|-----------------------|

after 2nd time
Eb|--------------------------------------|
Bb|--------------------------------------|
Gb|--------------------------------------|
Db|-888-555-33-0-------------------------|
Ab|-888-555-33-0-------------------------|
Db|--------------------------------------|

repeat chorus 2x

end on:

Eb|---|
Bb|---|
Gb|---|
Db|---|
Ab|-0-|
Db|-0-|
Related for Shut Me Out Acoustic tab
Advertisement will be closed in 10 seconds