Song name
# A B C D E F G H I J K L M N O P Q R S T U V W X Y Z

Kuwata Keisuke - Ashita Hareru Kana tab

-----------------------------------------------------------------------------
Ashita Hareru Kana - Kuwata Keisuke
-----------------------------------------------------------------------------
Tabbed by: Erin

Tuning: Standard

-----------------------------------------------------------------------------

The C, x33333 and F on top there are used to show you how to postition your
fingers. Then the numbers inside the stripes (--3--) are used to show
which fret of the guitar that you need to pluck.
(I hope you guys get what I mean ^^")

Official website for the Ban/Artist: http://www.jvcmusic.co.jp/sas/profile/index.html

Youtube link: http://www.youtube.com/watch?v=ttag_cEEJhQ

-----------------------------------------------------------------------------

p : pull-off

=============================================================================

F : xx3211


Intro:

  C                  x33333      F                  F
e|-0--3---1p--1p----|---3--5-----|-1--3---1p--1p----|----0----------|
B|-1--------------1-|-3-------5--|-1--------------1-|-3-----1--3--1-|
G|-0----------------|------------|-2----------------|---------------|
D|-2----------------|------------|-3----------------|----------3--2-|
A|-3----------------|-3----------|------------------|-3-------------|
E|------------------|------------|------------------|---------------|
Tap to rate this tab
# A B C D E F G H I J K L M N O P Q R S T U V W X Y Z