Song name
# A B C D E F G H I J K L M N O P Q R S T U V W X Y Z

Kvelertak - Mjod tab

Artist: Kvelertak
Song: Mjod
Album: Kvelertak

Drop D Tuning



[Intro Riff]
|-----------------------------------------------|
|-----------------------------------------------|
|-----------------------------------------------|
|-777~~~~~~~~~~-7-7-7-7-7-7-7-7-7-7-7-7-7-7-7-7-| X1
|-777~~~~~~~~~~-7-7-7-7-7-7-7-7-7-7-7-7-7-7-7-7-|
|-777~~~~~~~~~~-7-7-7-7-7-7-7-7-7-7-7-7-7-7-7-7-|
                 PM---------------------------|
                   Gradually release Palm mute
[Riff A]
|---------------------------------------------------|
|---------------------------------------------------|
|------------7-7-5--------7-7-5--------5-5-7--------|
|-7--7--7--7-7-7-5-7--7-7-7-7-5-3--3-3-5-5-7-5--5-5-|X2
|-7--7--7--7-5-5-3-7--7-7-5-5-3-3--3-3-3-3-5-5--5-5-|
|-7--7--7--7-------7--7-7-------3--3-3-------5--5-5-|

[Riff B] (The fist part is not played after the intro and chorus)
|-------------------------------------------------------------------|
|-------------------------------------------------------------------|
|-------------------------------------------------------------------|
|-7-7-7-8-7-5-7--10-10-10-11-10-8-10--7-7-7-8-7-5-7--5-5-5-0-0-0-0--|X6
|-7-7-7-8-7-5-7--10-10-10-11-10-8-10--7-7-7-8-7-5-7--5-5-5-0-0-0-0--|
|-7-7-7-8-7-5-7--10-10-10-11-10-8-10--7-7-7-8-7-5-7--5-5-5-0-0-0-0--|
 (-------------)
    This part

[Riff A]
|---------------------------------------------------|
|---------------------------------------------------|
|------------7-7-5--------7-7-5--------5-5-7--------|
|-7--7--7--7-7-7-5-7--7-7-7-7-5-3--3-3-5-5-7-5--5-5-|X2
|-7--7--7--7-5-5-3-7--7-7-5-5-3-3--3-3-3-3-5-5--5-5-|
|-7--7--7--7-------7--7-7-------3--3-3-------5--5-5-|

[Riff B]
|-------------------------------------------------------------------|
|-------------------------------------------------------------------|
|-------------------------------------------------------------------|
|-7-7-7-8-7-5-7--10-10-10-11-10-8-10--7-7-7-8-7-5-7--5-5-5-0-0-0-0--|X5
|-7-7-7-8-7-5-7--10-10-10-11-10-8-10--7-7-7-8-7-5-7--5-5-5-0-0-0-0--|
|-7-7-7-8-7-5-7--10-10-10-11-10-8-10--7-7-7-8-7-5-7--5-5-5-0-0-0-0--|

[Lead Riff] All Tremolo picking (there are many ways to play this riff)
|---------------------------------------------------------|
|----------------8-----9-8-6-8----------------------------|
|-9-----10-9-7-9---------------9-----10-9-7-9-7-----------|
|---------------------------------------------------7-----|X2
|---------------------------------------------------------|
|---------------------------------------------------------|

[Riff A]
|---------------------------------------------------|
|---------------------------------------------------|
|------------7-7-5--------7-7-5--------5-5-7--------|
|-7--7--7--7-7-7-5-7--7-7-7-7-5-3--3-3-5-5-7-5--5-5-|X4
|-7--7--7--7-5-5-3-7--7-7-5-5-3-3--3-3-3-3-5-5--5-5-|
|-7--7--7--7-------7--7-7-------3--3-3-------5--5-5-|
Tap to rate this tab
# A B C D E F G H I J K L M N O P Q R S T U V W X Y Z