Song name
# A B C D E F G H I J K L M N O P Q R S T U V W X Y Z

Kyle Dubs - Harpie tab

I just finished this song and i think it is 
good so far.It is in standard tuning with 
light distortion.I've been working on it for 
awhile let me know what you think at jjdynimo@yahoo.com 


Kinda slow for the intro/outro the rest is about 8/1 ( 8 notes presecond)


    Intro
[-----------------------------------------]
[-----------------------------------------]
[---9--9-999876-6--6-666543--222---0123---]
[-----------------------------------------]
[-----------------------------------------]
[-----------------------------------------]

outro
[-----------------------------------------]
[-----------------------------------------]
[-----------------------------------------]
[7b7777777755558888-----------------------]
[5b5555555533336666-----------------------]
[-----------------------------------------]

Main riff
[-----------------------------------------]Repeat 4x
[-----------------------------------------]
[-----------------------------------------]
[----7777777755558888---------------------]
[----5555555533338888---------------------]
[-----------------------------------------]

Verse
[-----------------------------------------]Repeat 2x
[-----------------------------------------]
[-----------------------------------------]
[---7---7-777-5---5-555-8---8-888---------]
[---5---5-555-3---3-333-6---6-666---------]
[-----------------------------------------]

Main riff 2x


Verse 2x


Outro 2x gets slower as you go from 8/1 to 2/1 
so spread it out and let the last chords ring
[--------------------------------0--------]
[--------------------------------0--------]
[--------------------------------0--------]
[7b7777777755558888--------------4--------]
[5b5555555533336666--------------2--------]
[--------------------------------0--------]
Tap to rate this tab
 
# A B C D E F G H I J K L M N O P Q R S T U V W X Y Z