Song name
# A B C D E F G H I J K L M N O P Q R S T U V W X Y Z

Kyle Justin - Avgn Theme tab

this is a very easy song

     1/2 - half note
     1/4 - quarter note
     1/8 - eighth note

Part 1
e--------------------------------------------------------------------|
B--------------------------------------------------------------------|
G-------------------------------------------5-----5------------------|
D-3-----3-----6-----6-----5-----5-----5-----5-----5------------------|
A-3-----3-----6-----6-----5-----5-----5-----3-----3------------------|
E-1-----1-----4-----4-----3-----3-----3------------------------------|
 1/4   1/4   1/4   1/4   1/8   1/8   1/8   1/8   1/8

 (play part 1 twice)

Part 2
e---------------------------------------------------------------------|
B---------------------------------------------------------------------|
G-------------------------------8-----8-----8-----8-----8-------------|
D-6-----6-----6-----6-----6-----8-----8-----8-----8-----8-------------|
A-6-----6-----6-----6-----6-----6-----6-----6-----6-----6-------------|
E-4-----4-----4-----4-----4-------------------------------------------|
 1/4   1/8   1/8   1/4   1/4   1/4   1/8   1/8   1/4   1/4

Part 3
e---------------------------------------------------------------------|
B---------------------------------------------------------------------|
G-10----10-----8-----8-----6-----6-----6-----6-----6------------------|
D-10----10-----8-----8-----6-----6-----6-----6-----6------------------|
A--8-----8-----6-----6-----4-----4-----4-----4-----4------------------|
E---------------------------------------------------------------------|
  1/8  1/8    1/8   1/8   1/4   1/8   1/8   1/4   1/4

 (play parts 2 and 3 twice)

Part  4
e----------------------------------------------------------------------|
B----------------------------------------------------------------------|
G-------------------------------8-----8-----6-----6-----6-----6-----6--|
D-6-----6-----6-----6-----6-----8-----8-----6-----6-----6-----6-----6--|
A-6-----6-----6-----6-----6-----6-----6-----4-----4-----4-----4-----4--|
E-4-----4-----4-----4-----4--------------------------------------------|
 1/4   1/8   1/8   1/4   1/4   1/8   1/8   1/4   1/8   1/8   1/4   1/4

 (play part 4 twice)

Part 5
e---------------------------------------------------------------------|
B---------------------------------------------------------------------|
G-------------8-----8-------------------------------------------------|
D-6-----6-----8-----8-----6-------------------------------------------|
A-6-----6-----6-----6-----6-------------------------------------------|
E-4-----4-----------------4-------------------------------------------|
 1/4   1/4   1/4   1/4   1/2
Tap to rate this tab
# A B C D E F G H I J K L M N O P Q R S T U V W X Y Z