Song name
# A B C D E F G H I J K L M N O P Q R S T U V W X Y Z

Kylesa - Unknown Awareness tab

                                      Kylesa
                                 Unknown Awareness

Guitar 1 Rhythm (A G C F A D)

I'll figure out the lead part tomorrow and put it up

Guitar 1 (0:32)
D|-------------------------------------------|
A|-------------------------------------------|
F|-7~~~-8--5--7~~--8--5--7~~--8--5--7~~-8--5-|
C|-x----x--x--x----x--x--x----x--x--x---x--x-|
G|-5~~~-6--3--5~~--6--3--5~~--6--3--5~~-6--3-|
A|-------------------------------------------|

Guitar 1 (0:44)
D|--------------------------------------------------------------| x4
A|--------------------------------------------------------------|
F|-7-7-7--7-7-7--7-7-7--7-7-7--10-10-10s-3-3-3s-10-10-10s-5-5-5-|
C|-x-x-x--x-x-x--x-x-x--x-x-x--x--x--x---x-x-x--x--x--x---x-x-x-|
G|-5-5-5--5-5-5--5-5-5--5-5-5--8--8--8s--5-5-5s-8--8--8s--3-3-3-|
A|--------------------------------------------------------------|

Guitar 1 (1:08)
D|-------------------------------------------|
A|-------------------------------------------|
F|-7~~~-8--5--7~~--8--5--7~~--8--5--7~~-8--5-|
C|-x----x--x--x----x--x--x----x--x--x---x--x-|
G|-5~~~-6--3--5~~--6--3--5~~--6--3--5~~-6--3-|
A|-------------------------------------------|

Guitar 1 (1:20)
D|------------------------------------------------| x4
A|------------------------------------------------|
F|------------------------------------------------|
C|------------------------------------------------|
G|-5~-5-5-5~-5-5s8~-8--8--8-8s-3-3-3-3-3-3-3s-6-5-|
A|-3~-3-3-3~-3-3s6~-6--6--6-6s-1-1-1-1-1-1-1s-4-3-|

Guitar 1 (1:44)
D|-------------------------------------------|
A|-------------------------------------------|
F|-7~~~-8--5--7~~--8--5--7~~--8--5--7~~-8--5-|
C|-x----x--x--x----x--x--x----x--x--x---x--x-|
G|-5~~~-6--3--5~~--6--3--5~~--6--3--5~~-6--3-|
A|-------------------------------------------|

Guitar 1 (1:56)
D|--------------------------------------------------------------| x4
A|--------------------------------------------------------------|
F|-7-7-7--7-7-7--7-7-7--7-7-7--10-10-10s-3-3-3s-10-10-10s-5-5-5-|
C|-x-x-x--x-x-x--x-x-x--x-x-x--x--x--x---x-x-x--x--x--x---x-x-x-|
G|-5-5-5--5-5-5--5-5-5--5-5-5--8--8--8s--5-5-5s-8--8--8s--3-3-3-|
A|--------------------------------------------------------------|

Guitar 1 (2:20)
D|------------------------------------------------| x4
A|------------------------------------------------|
F|------------------------------------------------|   Final time hold the
C|------------------------------------------------|   last chord
G|-5~-5-5-5~-5-5s8~-8--8--8-8s-3-3-3-3-3-3-3s-6-5-|
A|-3~-3-3-3~-3-3s6~-6--6--6-6s-1-1-1-1-1-1-1s-4-3-|    

Guitar 1 (2:49)
D|---------------------------|
A|---------------------------|
F|---------------------------|
C|---------------------------|
G|-6-5~~-----6-5~~-----6-5~~-|
A|-4-3~~-----4-3~~-----4-3~~-|

Guitar 1 (3:07)
D|------------------------------------------| x4
A|------------------------------------------|
F|------------------------------------------|
C|------------------------------------------|
G|-5--5-5-5--5-5-5-5--5--5-5-5--3-3-3-3-6-5-|
A|-3--3-3-3--3-3-3-3--3--3-3-3--1-1-1-1-4-3-|

Guitar 1 (3:30)
D|------------------------------------------------| x4
A|------------------------------------------------|
F|------------------------------------------------|
C|------------------------------------------------|
G|-5~-5-5-5~-5-5s8~-8--8--8-8s-3-3-3-3-3-3-3s-6-5-|
A|-3~-3-3-3~-3-3s6~-6--6--6-6s-1-1-1-1-1-1-1s-4-3-|

Guitar 1 (3:53)
D|-----------------------------------------| x4
A|-----------------------------------------|
F|-----------------------------------------|
C|-----------------------------------------|
G|-5~--5-5~--5-5-5-5--8~--8-8~-3-3-3-3-6-5-|
A|-3~--3-3~--3-3-3-3--6~--6-6~-1-1-1-1-4-3-|
Tap to rate this tab
# A B C D E F G H I J K L M N O P Q R S T U V W X Y Z