Song name
# A B C D E F G H I J K L M N O P Q R S T U V W X Y Z

Kylesa - To Walk Alone tab

one of my favorites by them, I was a bit lazy and only tabbed the rhythm guitar. just 
play it in drop D if you wanna be lazy too :)

Tuning: A#-F-A#-D#-G-C

Intro:

C----------------------------------------------------------------------------|
G ---------------------------------------------------------------------------|
D#---0h5h6-10p9-----0h5h6-10h12-----0h5h6-10p9-----0h5h6-10h12---------------|
A#-0--------------0---------------0--------------0---------------------------|
F ---------------------------------------------------------------------------|
A#---------------------------------------------------------------------------|

C----------------------------------------------------------------------------|
G ---------------------------------------------------------------------------|
D#---0h5h6-10p9-----0h5h6-10h12-----0h5h6-10p9-----0h5h6-10-7----------------|
A#-0--------------0---------------0--------------0---------------------------|
F ---------------------------------------------------------------------------|
A#---------------------------------------------------------------------------|

2x
C----------------------------------------------------------------------------|
G -10p9----------------------------10p9--------------------------------------|
D#------10-10p9----9h10-10-10p9---------10-10p9----9h10----9h10--------------|
A#--------------12--------------12--------------12------12------12-----------|
F ---------------------------------------------------------------------------|
A#---------------------------------------------------------------------------|

C----------------------------------------------------------------------------|
G ---------------------------------------------------------------------------|
D#-------7-----------7-----------10-----------10-----------12-----------12---|
A#-0-0-0---0-0-0-0-0---0-0-0-0-0----0-0-0-0-0----0-0-0-0-0----0-0-0-0-0------|
F ---------------------------------------------------------------------------|
A#---------------------------------------------------------------------------|
   1st                           2nd
C-/-----------------------------/--------------------------------------------|
G /-----------------------------/--------------------------------------------|
D#/----------5h7-7-------5h7-7--/------7-10---10-12---12-14-9----------------|
A#/0-0-0-0-0-------0-0-0--------/0-0-0------0-------0------------------------|
F /-----------------------------/--------------------------------------------|
A#/-----------------------------/--------------------------------------------|

fig 1. (2x)
C----------------------------------------------------------------------------|
G ---------------------------------------------------------------------------|
D#-------7-----10-----12-10-9-------7-----10-----12-15-15--------------------|
A#-0-0-0---0-0----0-0---------0-0-0---0-0----0-0-----------------------------|
F ---------------------------------------------------------------------------|
A#---------------------------------------------------------------------------|

C----------------------------------------------------------------------------|
G ---------------------------------------------------------------------------|
D#-------7-----10-----12-10-9-------10-9-7-------5-4-7-----------------------|
A#-0-0-0---0-0----0-0---------0-0-0--------0-0-0-----------------------------|
F ---------------------------------------------------------------------------|
A#---------------------------------------------------------------------------|

fig 2. (2x)
C----------------------------------------------------------------------------|
G ---------------------------------------------------------------------------|
D#---------------------------------------------------------------------------|
A#---------------------------------------------------------------------------|
F -0-0-10-12-0-0-14-12-10-10-12-12-0-0-10-12-0-0-7-5-3-3-2-2-----------------|
A#-0-0-10-12-0-0-14-12-10-10-12-12-0-0-10-12-0-0-7-5-3-3-2-2-----------------|


C----------------------------------------------------------------------------|
G ---------------------------------------------------------------------------|
D#---------------------------------------------------------------------------|
A#---------------------------------------------------------------------------|
F -0-0-10-12-0-0-14-12-10-10-12-12-0-0-10-12-0-0-7-5-10-10-7-7---------------|
A#-0-0-10-12-0-0-14-12-10-10-12-12-0-0-10-12-0-0-7-5-10-10-7-7---------------|

Chords:

D(A#)- x577xx
C(G#)- x355xx
G(D#)- 555xxx

D                 C
Thought not to walk alone here
 G
Where all things die
D               C
Witness the sameness of will
 G
Where all men cry
D           C
Farther and farther away
 G
Into long ago
D           C
Soft yellow halo inside
 G
Keeps me alive

   Fig. 2 (2x)

D                    C
My own reflection subsides
 G
When I look to you
D             C
Written and noted by none
 G
Fade out into
D         C
I drift farther away
 G
Into long ago
D             C
Witness your hollowing eyes
 G
Find time to die

   Fig. 1 (1x)

            long          a     -       go
C----------------------------------------------------------------------------|
G ---------------------------------------------------------------------------|
D#---------------------------------------------------------------------------|
A#---------------------------------------------------------------------------|
F -0-0-10-12-0-0-0-0-10-12-0-0-0-0-10-12-0-0-14-14-14-14-14-14---------------|
A#-0-0-10-12-0-0-0-0-10-12-0-0-0-0-10-12-0-0-14-14-14-14-14-14---------------|


            Fade          to            slow
C----------------------------------------------------------------------------|
G ---------------------------------------------------------------------------|
D#---------------------------------------------------------------------------|
A#---------------------------------------------------------------------------|
F -0-0-10-12-0-0-0-0-10-12-0-0-0-0-10-12-0-0-11-11-11-11-11-11---------------|
A#-0-0-10-12-0-0-0-0-10-12-0-0-0-0-10-12-0-0-11-11-11-11-11-11---------------|


            Fall          to            life
C----------------------------------------------------------------------------|
G ---------------------------------------------------------------------------|
D#---------------------------------------------------------------------------|
A#---------------------------------------------------------------------------|
F -0-0-10-12-0-0-0-0-10-12-0-0-0-0-10-12-0-0-14-14-14-14-14-14---------------|
A#-0-0-10-12-0-0-0-0-10-12-0-0-0-0-10-12-0-0-14-14-14-14-14-14---------------|


            Mo    -       tion          go
C----------------------------------------------------------------------------|
G ---------------------------------------------------------------------------|
D#---------------------------------------------------------------------------|
A#---------------------------------------------------------------------------|
F -0-0-10-12-0-0-0-0-10-12-0-0-0-0-10-12-0-0-11-11-11-11-11-11---------------|
A#-0-0-10-12-0-0-0-0-10-12-0-0-0-0-10-12-0-0-11-11-11-11-11-11---------------|


C----------------------------------------------------------------------------|
G ---------------------------------------------------------------------------|
D#---------------------------------------------------------------------------|
A#---------------------------------------------------------------------------|
F -14-14-14-14-12-12-14-14-14-14-12-12-14-14-14-14-12-12-14-14-14-14-12-12---|
A#-14-14-14-14-12-12-14-14-14-14-12-12-14-14-14-14-12-12-14-14-14-14-12-12---|

Fig. 1 chorded like this below for the rest.  Let E string ring first time, palm mute the second
C-----------------------------------------------------------------------------|
G ----------------------------------------------------------------------------|
D#-------7-----10-----12-10-9-------7-----10-----12s15-15---------------------|
A#-------7-----10-----12-10-9-------7-----10-----12s15-15---------------------|
F -------5-----8------10-8--7-------5-----8------10s13-13---------------------|
A#-0-0-0---0-0----0-0---------0-0-0---0-0----0-0------------------------------|

hope its helpful. Enjoy
Tap to rate this tab
 
# A B C D E F G H I J K L M N O P Q R S T U V W X Y Z