Kyo - Je Te Reve Encore tab

-----------------------------------------------------------------------------
			     JE TE REVE ENCORE - Kyo
-----------------------------------------------------------------------------
Tabbed by: garamri
Email: garam.ri@gmail.com

Tuning: Standard 

          Em                               Bm
e|-----12-------12-------12-------12---|-------10----------10---|
B|---8----8---8----8---8----8---8----8-|----12----12----12----12|
G|-9--------9--------9--------9--------|-11----------11---------|
D|-------------------------------------|------------------------|
A|-------------------------------------|------------------------|
E|-------------------------------------|------------------------|

  C (Repetition 1)             C (Repetition 2)
e|-------12----------12----|-------12----15----12----|
B|----13----13----13----13-|----13----13----13----13-|
G|-12----------12----------|-12----------------------|
D|-------------------------|-------------------------|
A|-------------------------|-------------------------|
E|-------------------------|-------------------------|

(This riff repeats throughout the song
Ce riff se repete tout au long du chanson.)
-------------------------------------------------------------------------

Intro: |Em Bm C(1) Em Bm C(2)|

Em                   Bm  C(1)
Un ange reste un ange,      si on ne l'oublie pas
Em                      Bm  C(2)
Je t'emmene, tu me tords
Em                      Bm  C(1)
Un corps reste un corps,     mais je ne l'oublie pas
Em                       Bm  C(2)
Je te fane, tu m'enterres

Em                         Bm C(1)
Je te reve encore je t'aime
Em                         Bm  C(2)
Je te reve encore je t'aime

Em                            Bm  C(1)
Au dessus des toits tu regnes oh!
                   Em
Je frappe d'en bas
                            Bm  C(2)
Quelques gouttes de moi-meme

Et traverse la

Em                         Bm  C(1)
Je te reve encore je t'aime
Em                         Bm  C(2)
Je te reve encore je t'aime

(pause)
Em  Bm  C(1)  Em Bm  C(2)

New Riff:
      Em                                 Bm               C
e|-----7-----------------7------------|-----2-0-----0---|-----3-0-----0-----|
B|---8------------8----8------------8-|---3-------3---3-|---5-------5---5---|
G|-9-----9--9-9-9----9-----9--9-9-9---|-4-------4-------|-5-------5---------|
D|------------------------------------|-----------------|-------------------|
A|------------------------------------|-----------------|-------------------|
E|------------------------------------|-----------------|-------------------|

      Em                                 Bm               C
e|-----7-----------------7------------|-----2-0-----0---|-----3-------3-----|
B|---8----------7-8----8----------7-8-|---3-------3---3-|---5---5---5---5---|
G|-9-----9--9-9------9-----9--9-9-----|-4-------4-------|-5-------5---------|
D|------------------------------------|-----------------|-------------------|
A|------------------------------------|-----------------|-------------------|
E|------------------------------------|-----------------|-------------------|

Em                         Bm C
Je te reve encore je t'aime
Em                         Bm C
Je te reve encore je t'aime

Return to the original riff/ Retournez au riff original.

Em Bm C(1)
Em Bm C(2)

Outro
e|---------------10------------------10------------------10---|
B|-8-7-10-7--8-7----7--8-7-10-7--8-7----7--8-7-10-7--8-7----7-|
G|------------------------------------------------------------|
D|------------------------------------------------------------|
A|------------------------------------------------------------|
E|------------------------------------------------------------|
                                           Au dessus des toits tu regnes

e|----------------------|
B|-------------7--------|
G|-------6-7-9----------|
D|---8-9----------------|
A|-9-------------9------|
E|----------------------|

End
Fin
---------------------------------------------------------------
Merci and thank you.
Please send corrections to garam.ri@gmail.com
S'il vous plait, envoyez des corrections a garam.ri@gmail.com
Tap to rate this tab
 
# A B C D E F G H I J K L M N O P Q R S T U V W X Y Z