Song name
# A B C D E F G H I J K L M N O P Q R S T U V W X Y Z

Kyo - La Verite Nous Ment tab

e|--0-------1-------0-------1-------0-------1-------0-------1----------------|
B|------1-------1-------1-------1-------1-------1-------1-------1------------|
G|---------------------------------------------------------------------------|
D|--3---------------3---------------0---------------0------------------------|
A|---------------------------------------------------------------------------|
E|---------------------------------------------------------------------------|

e|--0-------1-------0-------1-------0-------1-------0-------1----------------|
B|------1-------1-------1-------1-------1-------1-------1-------1------------|
G|---------------------------------------------------------------------------|
D|---------------------------------------------------------------------------|
A|--1---------------1---------------3---------------3------------------------|
E|---------------------------------------------------------------------------|

That's it...just play that over and over again
Tap to rate this tab
# A B C D E F G H I J K L M N O P Q R S T U V W X Y Z