Song name
# A B C D E F G H I J K L M N O P Q R S T U V W X Y Z

Kyo - La Derniere Danse tab

Couplet 1 et 2:

e:------------------|
B:------------------|
G:--7---3--------5--|
D:-7-7-3-3--3---5-5-|
A:5---1----3-3-3----|
E:--------1---------|

CHORUS:

e:----6-5---------|
B:-6-6---6-6-6-8--|
G:7-7--7--5-5-5-5-|
D:----------------|
A:----------------|
E:----------------|

Bridge:

e:--------------|
B:--------------|
G:--------------|
D:----3-7-------|
A:5-5----5--3-2-|
E:---5----5-----|
Tap to rate this tab
# A B C D E F G H I J K L M N O P Q R S T U V W X Y Z