Song name
# A B C D E F G H I J K L M N O P Q R S T U V W X Y Z

Kyoto Protocol - Give Me Nothing tab

Kyoto Protocol
Give Me Nothing
Version 1

Standard tuning


INTRO

guitar 1

        harmonics
|--------12---------|
|--------12---------|
|-------------------|
|-------------------|   2 times
|-------------------|
|-------------------|
|-------------------|



guitar 2


|-----xxx----x-xxx-x-|
|-----xxx----x-xxx-x-|
|-----xxx----x-xxx-x-|
|-----xxx----x-xxx-x-|
|-----xxx----x-xxx-x-|   2 times
|-----xxx----x-xxx-x-|


Lets go (Pre-verse)

Guitar 1+2

|---------------------------------------------------------------------------|
|---------------------------------------------------------------------------|
|---------------------------------------------------------------------------|
|---9-9-x-x-9-9-x-x---------------------------------------------------------|
|---9-9-x-x-9-9-x-x-7-7-x-x-7-7-x-x-11-11-x-x-11-11-x-x-11-11-x-x-11-11-----|
|---7-7-x-x-7-7-x-x-7-7-x-x-7-7-x-x-11-11-x-x-11-11-x-x-11-11-x-x-11-11-----|
|-------------------5-5-x-x-5-5-x-x-9--9--x-x-9--9--x-x-9--9--x-x-9--9------|


|-------------------------------------------------------------------------|
|-------------------------------------------------------------------------|
|-------------------------------------------------------------------------|
|-9-9-x-x-9-9-x-x---------------------------------------------------------|
|-9-9-x-x-9-9-x-x-7-7-x-x-7-7-x-x-11-11-x-x-11-11-x-x-11-11-11-9-9-9------|
|-7-7-x-x-7-7-x-x-7-7-x-x-7-7-x-x-11-11-x-x-11-11-x-x-11-11-11-9-9-9------|
|-----------------5-5-x-x-5-5-x-x-9--9--x-x-9--9--x-x-9--9--9--7-7-7------|


verse


Guitar 1

|---------------------------------------------------------------------------|
|---------------------------------------------------------------------------|
|---------------------------------------------------------------------------|
|---9-9-x-x-9-9-x-x---------------------------------------------------------|
|---9-9-x-x-9-9-x-x-7-7-x-x-7-7-x-x-11-11-x-x-11-11-x-x-11-11-x-x-11-11-----|
|---7-7-x-x-7-7-x-x-7-7-x-x-7-7-x-x-11-11-x-x-11-11-x-x-11-11-x-x-11-11-----|
|-------------------5-5-x-x-5-5-x-x-9--9--x-x-9--9--x-x-9--9--x-x-9--9------|

4 times

but before chorus (the give me nothing woohoo part)

~-----------------------|
~-----------------------|
~-----------------------|
~-----------------------|
~-11-11-x-x-11-11-9-9---|
~-11-11-x-x-11-11-9-9---|
~-9--9--x-x-9--9--7-7---|

Guitar 2

same as guitar 1 but after second round.



CHORUS


Guitar 1+2

-----------------------|
-----------------------|
-----------------------|
-----------------------|     repeat 4 times
---2--2--7-7-7-9-9--9--|     but last time do not play last two power chords
---2--2--7-7-7-9-9--9--|
---0--0--5-5-5-7-7--7--|


thats about it

song goes in this order

Intro
Pre-verse
Verse
Chorus
Pre-verse
Verse (PM to normal)
Chorus
Outro  (same as verse but without the scratching and end with with one round of chorus)

follow the song @ http://www.youtube.com/watch?v=TPBBc4WiJTg

follow the band @ http://www.facebook.com/kyotoprotocol




Jeff...
Tap to rate this tab
 
# A B C D E F G H I J K L M N O P Q R S T U V W X Y Z