Kyoto Protocol - Pussycat tab

Kyoto Protocol : Pussycat
Tabbed by      : Hariz Abdul Hadi (Twitter.com/CubaTryTest)
Tuning         : Standard (EADGBe)

[INTRO]

(Guitar 1)
e|----------------------------|x4
B|----------------------------|
G|----------------------------|
D|--7-x-77-x-xxx-9-x-99-x-xxx-|
A|----------------------------|
E|--5-x-55-x-xxx-8-x-88-x-xxx-|

(Guitar 2)
e|-15-x-1515-x-xxx-14-x-1414-x-xxx-|x4
B|-17-x-1717-x-xxx-15-x-1515-x-xxx-|
G|-16-x-1616-x-xxx-16-x-1616-x-xxx-|
D|---------------------------------|
A|---------------------------------|
E|---------------------------------|

*PAUSE*

[VERSE]

Same as [INTRO]

(Guitar 1)
e|----------------------------|x8
B|----------------------------|
G|----------------------------|
D|--7-x-77-x-xxx-9-x-99-x-xxx-|
A|----------------------------|
E|--5-x-55-x-xxx-8-x-88-x-xxx-|

(Guitar 2)
e|-15-x-1515-x-xxx-14-x-1414-x-xxx-|x8
B|-17-x-1717-x-xxx-15-x-1515-x-xxx-|
G|-16-x-1616-x-xxx-16-x-1616-x-xxx-|
D|---------------------------------|
A|---------------------------------|
E|---------------------------------|

[CHORUS]

(Both guitars)
e|------------------0-|
B|------------------0-|
G|------------------1-|
D|-5555555555555-44-2-|
A|-5555555555555-44-2-|
E|-3333333333333-22-0-|
Let ring...         *

e|------------------0-|
B|------------------0-|
G|---------------22-1-|
D|-5555555555555-22-2-|
A|-5555555555555-00-2-|
E|-3333333333333----0-|
Let ring...         *
 
*Guitar noise*

[PRE-VERSE]

(Guitar 2)
e|-17--16--15-14-13-12-|
B|-17--16--15-14-13-12-|
G|---------------------|
D|---------------------|
A|---------------------|
E|---------------------|

Repeat [VERSE] [CHORUS]

[BRIDGE]

(Both guitars)
e|----------------------------------|
B|----------------------------------|
G|----------------------------------|
D|-5555555555555-44-----------------|
A|-5555555555555-44-----------------|
E|-3333333333333-22-----------------|\
                                      X4
e|----------------------------------|/
B|----------------------------------|
G|-99-xxxx-1111-xxxx-1212-xxxx-1414-|
D|----------------------------------|
A|-77-xxxx--9-9-xxxx-1010-xxxx-1212-|
E|----------------------------------|

On the 2nd time:

(Guitar 2)
e|----------------------------------|x3
B|-88-xxxx-1010-xxxx-1212-xxxx-1515-|
G|----------------------------------|
D|-55-xxxx--7-7-xxxx--9-9-xxxx-1212-|
A|----------------------------------|
E|----------------------------------|

[BREAKDOWN]

(Guitar 1)
e|----------------------------------------------------|x2
B|----------------------------------------------------|
G|-------5-555-------------------5-555-7-777-777-77-7-|
D|-7-777-5-555-5-555-2-222-1-111-5-555-7-777-777-77-7-|
A|-7-777-3-333-5-555-2-222-1-111-3-333-5-555-555-55-5-|
E|-5-555-------3-333-2-222-1-111----------------------|

Same strumming as Guitar 1:

(Guitar 2)
e|-15----14----15----14----15----14----14-------------|
B|-17----15----17----15----17----15----15-------------|
G|-16----16----16----16----16----16----14-------------|
D|----------------------------------------------------|
A|----------------------------------------------------|
E|----------------------------------------------------|

2nd time:

e|-15----14----15----14----15----14----17-------------|
B|-17----15----17----15----17----15----19-------------|
G|-16----16----16----16----16----16----19-------------|
D|----------------------------------------------------|
A|----------------------------------------------------|
E|----------------------------------------------------|

[PRE-SOLO]

(Guitar 1)
e|-----------------------------------|x8
B|-----------------------------------|
G|------5555-77-xx-77-xx-77-xx-77-xx-|
D|-2222-5555-77-xx-77-xx-77-xx-77-xx-|
A|-2222-3333-55-xx-55-xx-55-xx-55-xx-|
E|-1111------------------------------|

(Guitar 2)
e|-----------------------------------------------|x4
B|-----------------------------------------------|
G|-14141414-9999-1111-xx-1111-xx-1111-xx-1111-xx-|
D|-----------------------------------------------|
A|-12121212-7777--9-9-xx--9-9-xx--9-9-xx--9-9-xx-|
E|-----------------------------------------------|

[SOLO]
 
e|----------------------------------|
B|----------------------------------|
G|-12/14-14-14-12h14-14/16-14/12-12-|
D|----------------------------------|
A|----------------------------------|
E|----------------------------------|

e|---------------------------|
B|-15^----13-15-15^----13-15-|
G|-----14-----------14-------|
D|---------------------------|
A|---------------------------|
E|---------------------------|

e|----------------------------------|
B|----------------------------------|
G|-12/14-14-14-12h14-14/16-14/12-12-|
D|----------------------------------|
A|----------------------------------|
E|----------------------------------|

e|----15----15----15----15-141414...-|
B|-17----17----17----17----151515...-|
G|-----------------------------------|
D|-----------------------------------|
A|-----------------------------------|
E|-----------------------------------|

e|----------------------------------|
B|----------------------------------|
G|-12/14-14-14-12h14-14/16-14/12-12-|
D|----------------------------------|
A|----------------------------------|
E|----------------------------------|

e|--------------16^----------|
B|-15^----13-15--------13-15-|
G|-----14-----------14-------|
D|---------------------------|
A|---------------------------|
E|---------------------------|

e|----15----------1212-13-15------------141414...-|
B|-17----17-15-13-----------13-15/17-15-151515...-|
G|------------------------------------------------|
D|------------------------------------------------|
A|------------------------------------------------|
E|------------------------------------------------|

[OUTRO]

Same as [BREAKDOWN] except faster!

-End-
Tap to rate this tab
 
# A B C D E F G H I J K L M N O P Q R S T U V W X Y Z