Song name
# A B C D E F G H I J K L M N O P Q R S T U V W X Y Z

Kyuss - Big Bikes tab

-------------------------------------------------------------------------------
			     Big Bikes - Kyuss
-------------------------------------------------------------------------------
Tabbed by: Kevin Olynyk (Kayfan)
Email:     kolynyk@shaw.ca

Note:      This is my first tab, I couldn't figure out the solo, but it's hard
           to find Kyuss tabs like this so hopefully I can be forgiven.

Tuning: C-Standard (C-F-Bb-Eb-G-c)

Intro(x1)

 c|-----------------------------------------------|
 G|-----------------------------------------------|
Eb|-7-6-7-X-XXX-7-6-7-X-XXX-7-6-7-x-xxx-7-6-7-----|
Bb|-5-4-5-X-XXX-5-4-5-X-XXX-5-4-5-x-xxx-5-4-5---2-|
 F|-5-4-5-X-XXX-5-4-5-X-XXX-5-4-5-x-xxx-5-4-5---2-|
 C|---------------------------------------------0-|

Note: The percussive mutes are optional, they are just there to "simulate" drums
   
 c|-----------------------------------------------|
 G|-----------------------------------------------|
Eb|-----------------------------------------------|
Bb|-----------------------------------------------|
 F|-0--0-0-5-4-3----------------------------------|
 C|---------------0-0-7-6-5-3---------------------|
               ~            ~ 

 c|-----------------------------------------------|
 G|-----------------------------------------------|
Eb|-----------------------------------------------|
Bb|-----------------------------------------------|
 F|-0--0-0-5-4-3----------------------------------|
 C|---------------0-0-7-6-5-3---------------------|
               ~            ~ 

 c|-----------------------------------------------|
 G|-----------------------------------------------|
Eb|-----------------------------------------------|
Bb|-----------------------------------------------|
 F|-0--0-0-5-4-3----------------------------------|
 C|---------------0-0-7-6-5-3---------------------|
               ~            ~ 

 c|-----------------------------------------------|
 G|-----------------------------------------------|
Eb|-----------------------------------------------|
Bb|-----------------------------------------------|
 F|-0--0-0-5-4-3----------------------------------|
 C|---------------0-0-7-6-5-3---------------------|
               ~            ~ 

 c|-----------------------------------------------|
 G|-----------------------------------------------|
Eb|-----------------------------------------------|
Bb|-0--0-0-7-6-5----------------------------------|
 F|-----------------------------------------------|
 C|---------------0-0-7-6-5-3---------------------|
               ~            + 

 c|-----------------------------------------------|
 G|-----------------------------------------------|
Eb|-----------------------------------------------|
Bb|-0--0-0-7-6-5----------------------------------|
 F|-----------------------------------------------|
 C|---------------0-0-7-6-5-3---------------------|
               +            + 

Verse(x4)

 c|-----------------------------------------------|
 G|-----------------------------------------------|
Eb|-----------------------------------------------|
Bb|-22--2--2--2--2--2-5/75-5-0--------------------|
 F|-22--2--2--2--2--2-5/75-5-0--------------------|
 C|-00--0--0--0--0--0-3/53-3-0--------------------|

Chorus(x1)

 c|-----------------------------------------------|
 G|-----------------------------------------------|
Eb|-----------------------------------------------|
Bb|-555-555-555-555----------------5/65/65/65/65--|
 F|-555-555-555-555----------------5/65/65/65/65--|
 C|-333-333-333-333----------------5/65/65/65/65--|


Verse  I(x2)

 c|-----------------------------------------------|
 G|-----------------------------------------------|
Eb|-----------------------------------------------|
Bb|-22--2--2--2--2--2-5/75-5-0--------------------|
 F|-22--2--2--2--2--2-5/75-5-0--------------------|
 C|-00--0--0--0--0--0-3/53-3-0--------------------|

Verse II(x1)

 c|-----------------------------------------------|
 G|-----------------------------------------------|
Eb|-----------------------------------------------|
Bb|-22--2--2--2--2--2-5/75-5-0--------------------|
 F|-22--2--2--2--2--2-5/75-5-0--------------------|
 C|-00--0--0--0--0--0-3/53-3-0--------------------|

 c|-----------------------------------------------|
 G|-----------------------------------------------|
Eb|-----------------------------------------------|
Bb|-555-555-555-555----------------5/65/65/65/65--|
 F|-555-555-555-555----------------5/65/65/65/65--|
 C|-333-333-333-333----------------5/65/65/65/65--|

 c|-----------------------------------------------|
 G|-----------------------------------------------|
Eb|-----------------------------------------------|
Bb|-22--2--2--2--2--2-5/75-5-0--------------------|
 F|-22--2--2--2--2--2-5/75-5-0--------------------|
 C|-00--0--0--0--0--0-3/53-3-0--------------------|

Outro   I(x2)

 c|-----------------------------------------------|
 G|-----------------------------------------------|
Eb|-----------------------------------------------|
Bb|-----------------------------------------------|
 F|-0--0-0-5-4-3----------------------------------|
 C|---------------0-0-7-6-5-3---------------------|
               ~            ~

Outro  II(x2)

 c|-----------------------------------------------|
 G|-----------------------------------------------|
Eb|-----------------------------------------------|
Bb|-0--0-0-7-6-5----------------------------------|
 F|-----------------------------------------------|
 C|---------------0-0-7-6-5-3---------------------|
               ~            ~

Outro III(x1)

 c|-----------------------------------------------|
 G|-----------------------------------------------|
Eb|-7-6-7-------7-6-7-------7-6-7-------7-6-7-----|
Bb|-5-4-5-------5-4-5-------5-4-5-------5-4-5---2-|
 F|-5-4-5-------5-4-5-------5-4-5-------5-4-5---2-|
 C|---------------------------------------------0-|  

===============================================================================
| /  slide up
| \  slide down
| h  hammer-on
| p  pull-off
| ~  vibrato
| +  harmonic
| x  Mute note
===============================================================================
Tap to rate this tab
# A B C D E F G H I J K L M N O P Q R S T U V W X Y Z