Song name
# A B C D E F G H I J K L M N O P Q R S T U V W X Y Z

Kyuss - Shine tab

Shine

by Kyuss
From the CD 'Muchas Gracias ...the best of'

transcribed by Christian Reindel(creindel@gmx.de)
any questions or corrections- e-mail me

Tuning: (Low) C, F, Bb, Eb, G, C (High)

just the basics, it's very simple but sounds good

Main Riff (clean guitar)
 
C |--------------------||------------------|
G |--------------------||------------------|
Eb|--------------------||------------------|
Bb|--------2--(2)------||-2---2-2----------|
F |-1-1--2-------------||---------2--1-(1)-|
C |--------------------||------------------|

Riff 2 (with distorsion)

C |-------------------------------------------------|
G |-------------------------------------------------|
Eb|-------------------------------------------------|
Bb|-------------------------------------------------|
F |-2--2-2--2--2-2--2--2-2--8--8-8--8--8-8--8--8-8--|
C |-0--0-0--0--0-0--0--0-0--6--6-6--6--6-6--6--6-6--|
Tap to rate this tab
 
# A B C D E F G H I J K L M N O P Q R S T U V W X Y Z