Song name
# A B C D E F G H I J K L M N O P Q R S T U V W X Y Z

Kyuss - Hurricane tab

Main Riff:
 C|-----------------------------|---------||
 G|---------------------5-5-6-6-|-6-6-5-5-||
Eb|-----------------------------|---------||
Bb|-7-7-10/7-7-10/7-7-7---------|---------||
 F|-5-5--8/5-5--8/5-5-5---------|---------||
 C|-----------------------------|---------||
				(variation)

Interlude:
 C|------------------------------------------||
 G|------------------------------------------||
Eb|------------------------------------------||
Bb|-7-7-10-10-10-9-9-9-9-9-9-9-9-9-9-8-8-8-8-||
 F|-5-5--8--8--8-7-7-7-7-7-7-7-7-7-7-6-6-6-6-||
 C|------------------------------------------||


After the Interlude, play the Main Riff, 
playing one each of the two variants.


The Outro is all ten chords played insequence until C5 is reached.
Tap to rate this tab
 
# A B C D E F G H I J K L M N O P Q R S T U V W X Y Z