Song name
# A B C D E F G H I J K L M N O P Q R S T U V W X Y Z

Kyuss - All The Way Down tab

off the Demolition Day EP
Main Riff(play quiet a few times)
E---------------------------------------------------------------------------|
B---------------------------------------------------------------------------|
G------------10--9--9-9-9-9-------------------------------------------------|
D--7-7-7-7-7-10--9--9-9-9-9---10---12--12-12-12-12---7--5--5-5-5-5-10--7--7-|
A--7-7-7-7-7--8--7--7-7-7-7---10---10--12-12-12-12---7--5--5-5-5-5-10--7--7-|
E--5-5-5-5-5-------------------8---10--10-10-10-10---5--3--3-3-3-3--8--5--5-|

E--------------------------------------------------------------------|
B--------------------------------------------------------------------|
G--------------------------------------------------------------------|
D--7-7-7---x repeat-until chorus-------------------------------------|
A--7-7-7-------------------------------------------------------------|
E--5-5-5-------------------------------------------------------------|

Chorus
E-----------------------------------------------------------------|
B-----------------------------------------------------------------|
G-9------10-------7-----------------------------------------------|
D-9--x12-10--x6---7--x6-------------------------------------------|
A-7-------8-------5-----------------------------------------------|
E-----------------------------------------------------------------|

there yaz go
Tap to rate this tab
# A B C D E F G H I J K L M N O P Q R S T U V W X Y Z