Guitaretab - guitar tabs
Song name
# A B C D E F G H I J K L M N O P Q R S T U V W X Y Z

Kyuss - Isolation tab

-------------------------------------------------------------------------------
                              ISOLATION - Kyuss
-------------------------------------------------------------------------------

Tabbed by: brian_s
Email: branimir.sremec@kc.t-com.hr



Feedback


Verse 1:
C#---------------------------------------------------------------------|
G#---------------------------------------------------------------------|
E----------------------------------------------------------------------|
B----2-2-2-2-2-2-2-2-2-2-2-2-2-2-2-2-2-2----5-5-5-5-5-5--4-4-4-4-4-4---|
F#---2-2-2-2-2-2-2-2-2-2-2-2-2-2-2-2-2-2----5-5-5-5-5-5--4-4-4-4-4-4---|
C#---0-0-0-0-0-0-0-0-0-0-0-0-0-0-0-0-0-0----3-3-3-3-3-3--2-2-2-2-2-2---|

C#-----------------------|
G#-----------------------|
E------------------------|
B----2-2-2-2-2-2-2-2-2---|
F#---2-2-2-2-2-2-2-2-2---|
C#---0-0-0-0-0-0-0-0-0---|



CHORUS:
C#----------------------------------------------------|
G#----------------------------------------------------|
E----5-5-5-5-5--2-2-2---2-----------------------------|
B----5-5-5-5-5--2-2-2---2---2-2-2-2-2-2-2-2-2-2-2-2---|
F#---3-3-3-3-3--0-0-0---0---2-2-2-2-2-2-2-2-2-2-2-2---|
C#--------------------3-----0-0-0-0-0-0-0-0-0-0-0-0---|
[ Tab from: http://www.guitaretab.com/k/kyuss/156974.html ]
C#--------------------------------------------------------|
G#------------------------------------17-17-17-------------|
E----5-5-5-5-5--2-2-2---2----------------------14br12------|
B----5-5-5-5-5--2-2-2---2---2-2-2--14-----------------14---|
F#---3-3-3-3-3--0-0-0---0---2-2-2--------------------------|
C#--------------------3-----0-0-0--------------------------|

C#------------------------------------------------------|
G#------------------------------------------------------|
E----5-5-5-5-5--2-2-2---2--------------------------12---|
B----5-5-5-5-5--2-2-2---2---2-2-2--14-14-14--12h14------|
F#---3-3-3-3-3--0-0-0---0---2-2-2-----------------------|
C#--------------------3-----0-0-0-----------------------|

C#----------------------------------------------------|
G#----------------------------------------------------|
E----5-5-5-5-5--2-2-2---2-----------------------------|
B----5-5-5-5-5--2-2-2---2---2-2-2-2-2-2-2-2-2-2-2-2---|
F#---3-3-3-3-3--0-0-0---0---2-2-2-2-2-2-2-2-2-2-2-2---|
C#--------------------3-----0-0-0-0-0-0-0-0-0-0-0-0---|



Play verse riff 2x



VERSE 2:  
Play verse riff 2x


CHORUS:
Play chorus 



Play verse riff 2x



VERSE 3: 
Play verse riff 2x


CHORUS:
Play chorus 


OUTRO: 
C#--------------------------------------|
G#--------------------------------------|
E---------------------------------------|   play 4x
B----9--9---10-10-10-----7--7---9-9-9---| 
F#---7--7----8--8--8-----5--5---7-7-7---|
C#--------------------------------------|




br  =  bend release
h   =  hammer-on
Related for Isolation tab