Guitaretab - guitar tabs
Song name
# A B C D E F G H I J K L M N O P Q R S T U V W X Y Z

Kyuss - Happy Birthday tab

-------------------------------------------------------------------------------
                            HAPPY BIRTHDAY - Kyuss
-------------------------------------------------------------------------------

Tabbed by: brian_s
Email: branimir.sremec@kc.t-com.hr


INTRO:
C#-----------|---------------------------------------------------------|
G#-----------|---------------------------------------------------------|
E------------|---------------------------------------------------------|
B------------|---------------------------------------------------------|
F#-----------|---------------------------------------------------------|
C#---6p4h6---|---6x-6x-6x-6x-6x-6x-6x-6x-6x-6x-6x-6x-6x-6x-6x-6x--6b---|

C#------------------------------------------------|
G#------------------------------------------------|
E-------------------------------------------------|  2x
B-------------------------------8-8--11-11--8-8---|
F#--------8-8--11-11--8-8--7-7--------------------|
C#---6-6------------------------------------------|

C#-------------------------------------------------------------------|
G#-------------------------------------------------------------------|
E--------------------------------------------------------------------|
B----t11p8---t11p8---t11p8---t11p8---t11p8---t11p8---t11p8---t11p8---|
F#-------------------------------------------------------------------|
C#-------------------------------------------------------------------|

C#-------------------------------------------------------------------|
G#-------------------------------------------------------------------|
E--------------------------------------------------------------------|
B----t13p8---t13p8---t13p8---t13p8---t13p8---t13p8---t13p8---t13p8---|
F#-------------------------------------------------------------------|
C#-------------------------------------------------------------------|

C#-------------------------------------------------------------------|
G#-------------------------------------------------------------------|
E--------------------------------------------------------------------|
B----t15p8---t15p8---t15p8---t15p8---t15p8---t15p8---t15p8---13h15---|
F#-------------------------------------------------------------------|
C#-------------------------------------------------------------------|

C#----------------------------------------------------|
G#----------------------------------------------------|
E-----------------------------------------------------|  3x
B-----------------------------------------------------|
F#-------------------8-7-8--------------------8-7-4---|
C#---6x-6x-6x-6x-6x-----------2x-2x-2x-2x-2x----------|

C#---------------------------------------------|
G#---------------------------------------------|
E----------------------------------------------|
B----------------------------------------------|
F#-------------------8-7-8-7-8-7-8-7-8-7-8-7---|
C#---6x-6x-6x-6x-6x----------------------------|

[ Tab from: http://www.guitaretab.com/k/kyuss/161000.html ]
VERSE:
C#------------------------------------------|
G#------------------------------------------|
E------------------------6-6-6x-6x-6x-6x---|
B----8-8--8x-8x-8x-8x----6-6-6x-6x-6x-6x---|  ---
F#---8-8--8x-8x-8x-8x----4-4-4x-4x-4x-4x---|     |
C#---6-6-6x-6x-6x-6x-----------------------|     |
                                                  |   8x
C#------------------------------------------|     |
G#------------------------------------------|     | 
E------------------------8-8--8x-8x-8x-8x---|     |
B----4-4--4x-4x-4x-4x----8-8--8x-8x-8x-8x---|  ---  
F#---4-4--4x-4x-4x-4x----6-6-6x-6x-6x-6x---|
C#---2-2-2x-2x-2x-2x-----------------------|


SOLO:
C#--------------------------------------|
G#--------------------------------------|
E---------------------------------------|
B---------------------------------------|
F#--------------------------------------|
C#---6-6-6-6-6-6-6-6--8-8-8-8-8-8-8-8---|

C#----------------------------------------|
G#----------------------------------------|
E-----------------------------------------|
B-----------------------------------------|
F#------------8-8-8-8-----------8-8-8-8---|
C#---9-9-9-9-----------9-9-9-9------------|

C#------------------------------------------------|
G#------------------------------------------------|
E-------------------------------------------------|
B---------8------------8----------------8---------|
F#---8-11---11----8-11----11-11----8-11---11-11---|
C#------------------------------------------------|

C#----------------------|
G#----------------------|
E----------10-----------|  4x
B----10h11----11p10p8---|
F#----------------------|
C#----------------------|

C#----(play 6x)----|---------|
G#-----------------|---------|
E------------------|---------|  
B----10h11h13p11---|---11b---|
F#-----------------|---------|
C#-----------------|---------|

C#-----------------------------------------------------------|
G#-----------------------------------------------------------|
E------------------------------------------------------------|  
B------------------------------------------------------------|
F#-----------------------------------------------------------|
C#---6h8h9p8--6h8h9p8--6h8h9p8---6h8h9p8--6h8h9p8--6h8h9p8---|

C#--------------------------------------------------------------------|
G#--------------------------------------------------------------------|
E---------------------------------------------------------------------|  
B---------------------------------------------------------------------|
F#-------8---------8---------8---------8-------11-13---13-13-13-13b---|
C#---8h9--9---8h9--9---8h9--9---8h9--9----------------------------|



VERSE:
Verse riff  8x


BRIDGE:
C#---------------------------------------|
G#---------------------------------------|
E------------------6-----------------8---|
B----8------8------6-----3--4-------8---|
F#---8------8------4-----3--4-------6---|
C#---6------6-------------1--2-----------|
   
C#-----------------------------------|
G#-----------------------------------|
E--------------6-----------------8---|   5x
B----6--8------6-----3--4-------8---|
F#---6--8------4-----3--4-------6---|
C#---4--6-------------1--2-----------|   


OUTRO:
Verse riff  6x




P   =  pull of
h   =  hammer-on
t   =  tap note
b   =  bend note
x   =  mute note
Related for Happy Birthday tab