Song name
# A B C D E F G H I J K L M N O P Q R S T U V W X Y Z

Kyuss - Im Not tab

-------------------------------------------------------------------------------
			     I'm Not - Kyuss
-------------------------------------------------------------------------------
Tabbed by: Shotgun Jesus

Tuning: C standard, low to high : C F A# D# G C

                                main riff

c|----------------------------------------------------------------------------------|
G|----------------------------------------------------------------------------------|
D#|---------------------------------------------------------------------------------|
A#|---------------------------------------------------------------------------------|
F|-----------7~------------------------------7~----------------------7~-------------|
C|----0--0--------3p0-0-3p0-0-3br---0--0----------3p0-0-3p0-3br-0-------------------|

                                 next riff

 c|-----------------------------------------------------------------------------|
G|------------------------------------------------------------------------------|
D#|-----------------------------------------------------------------------------|
A#|-----------------------------------------------------------------------------|
F|-------------------------------------7~-------2-2-2-2----2-2-2-2--------------|
C|-------------3p0-0-3p0-0-3br--0--0------------0-0-0-0----0-0-0-0--------------|
                                              pm--------------------------------|

 c|-----------------------------------------------------------------------------|
G|------------------------------------------------------------------------------|
D#|-----------------------------------------------------------------------------|
A#|--------9------9s12--12--7--------------9--------12-12-12-12-12-12-----------|
F|---------7------7s10--10--5--------------7--------10-10-10-10-10-10-----------|
C|--0--0-----0-0---------------------0--0-----0---------------------------------|
  pm ----    ----                    ----     ----------------------------------|


                                    rhythmn

 c|-----------------------------------------------------------------------------|
G|------------------------------------------------------------------------------|
D#|--------9-9-x-7-7-7-7-7------------4-4x5-5-5----5s4--------------------------|
A#|--------9-9-x-7-7-7-7-7------------6-4x5-5-5----5s4--------------------------|
F|---------7-7-x-5-5-5-5-5------------6-6x3-3-3----3s2--------------------------|
C|------------------------------------------------------------------------------|


                                      solo

 c|-----------------------------------------------------------------------------|
G|---------8-----------------------8--------------------------8-----------------|
D#|---7h9-----9-7-9-7-9b------7h9-----7-6-7-6-7v---9-9-7h9-----9-7-9-7-9b-------|
A#|-----------------------------------------------------------------------------|
F|------------------------------------------------------------------------------|
C|------------------------------------------------------------------------------|

 c|-----------------------------------------------------------------------------|
G|--------8---------------------------------------------------------------------|
D#|---7s9-----7-6-7-6-7b-----------7-------9-------7----------------------------|
A#|---------------------------6s7-----6s7-----6s7-----6s7-----------------------|
F|---------------------------------------------------------7---9v---------------|
C|------------------------------------------------------------------------------|

 c|-----------------------------------------------------------------------------|
G|------------------------------------------------------------------------------|
D#|-----------------------------------------------------------------------------|
A#|-------6-6-6-6h7---------6-6-6-6h7-------------6--6--6h7---------------------|
F|------------------7--9v-------------7--9v------------------7--9v--------------|
C|------------------------------------------------------------------------------|

 c|-----------------------------------------------------------------------------|
G|------------------------------------------------------------------------------|
D#|-----------------------------------------------------------------------------|
A#|---6-6-6-6h7~-----6-6-6-6h7------------6-6-6-6h7-----------------------------|
F|------------------------------7--9v----------------7--9v----------------------|
C|------------------------------------------------------------------------------|


                            extra solo from demo version

 c|-----------------------------------------------------------------------------|
G|------------------------------------------------------------------------------|
D#|-----------7---------9----------7--------------------------------------------|
A#|---6h7p6h7---6h7p6h7----6h7p6h7---6h7p6h7----------6h7v--6h7p6h7-------------|
F|-------------------------------------------7--9v--------------------7--9v-----|
C|------------------------------------------------------------------------------|


                   palm mute during bass solo then release

 c|-----------------------------------------------------------------------------|
G|------------------------------------------------------------------------------|
D#|--------9-9-x-7-7-7-7-7------------4-4x-5-5-5----5s4-------------------------|
A#|--------9-9-x-7-7-7-7-7------------6-6x-5-5-5----5s4-------------------------|
F|---------7-7-x-5-5-5-5-5------------6-6x-3-3-3----3s2-------------------------|
C|------------------------------------------------------------------------------|
   pm---------------------------------------------------------------------------|


                                 then repeat second and third riffs

| s  slide up
| s  slide down
| h  hammer-on
| p  pull-off
| v  vibrato
| +  harmonic
| x  Mute note
===============================================================================
Tap to rate this tab
 
# A B C D E F G H I J K L M N O P Q R S T U V W X Y Z