Song name
# A B C D E F G H I J K L M N O P Q R S T U V W X Y Z

Kyuss - Big Bikes tab

-------------------------------------------------------------------------------
			     BIG BIKES - Kyuss
-------------------------------------------------------------------------------
Tabbed by: ironmanben
Email: bentrooper@gmail.com

Tuning: eb Bb Gb Db Ab Db

intro:
eb|-----------------------------------------------------|
Bb|-----------------------------------------------------|
Gb|-----------------------------------------------------|
Db|-7-5----------7-5----------7-5----------7-5----------|
Ab|-5-3-5--------5-3-5--------5-3-5--------5-3-5--------|
Db|-0-0-0--------0-0-0--------0-0-0--------0-0-0--------|


riff 1:
eb|---------------------------|
Bb|---------------------------|
Gb|---------------------------|
Db|---------------------------|
Ab|------5-4-3~---------------|
Db|-0-(0)--------0--0-7-6-5-3-|


riff 2:
eb|---------------------------|
Bb|---------------------------|
Gb|---------------------------|
Db|---------------------------|
Ab|------5-4-3~---------------|
Db|-0--0---------0--0-7-6-5-3-|


riff 3:
eb|---------------------------|
Bb|---------------------------|
Gb|------7+6+5+~--------------|
Db|------x-x-x----------------|
Ab|------5-4-3----------------|
Db|-0--0---------0--0-7-6-5-3-|


main riff/verse intro:
eb|---------------------|
Bb|---------------------|
Gb|---------------------|
Db|-0-0--0-0-0-0-0-/5-3-|
Ab|-0-0--0-0-0-0-0-/5-3-|
Db|-0-0--0-0-0-0-0-/5-3-|


main riff/verse:
eb|---------------------|
Bb|---------------------|
Gb|---------------------|
Db|-3-0--0-0-0-0-0-/5-3-|
Ab|-3-0--0-0-0-0-0-/5-3-|
Db|-3-0--0-0-0-0-0-/5-3-|


pre-chorus:
e|----------------------------------------------------|
B|----------------------------------------------------|
G|----------------------------------------------------|
D|-3-3-3-3-3-3-3-3-3-3-3-3-3-3-3-3-5/6-5/6-5/6\5/6\5\-|
A|-3-3-3-3-3-3-3-3-3-3-3-3-3-3-3-3-5/6-5/6-5/6\5/6\5\-|
E|-3-3-3-3-3-3-3-3-3-3-3-3-3-3-3-3-5/6-5/6-5/6\5/6\5\-|


guitar solo:
eb|--------------------------------------------------------------------------|
Bb|-3-----3-----3-----3-----3-----3-----3----------------------3-6p5p3-----6-|
Gb|-2-5-2---5-2---5-2---5-2---5-2---5-2---5-2-5p2-5p2-5p2-5/7---------5p4p2--|
Db|--------------------------------------------------------------------------|
Ab|--------------------------------------------------------------------------|
Db|--------------------------------------------------------------------------|

eb|------------------------------------------------------10-10-10-10\-8-8-8-|
Bb|-p5p3-----6p5p3-----6p5p3-----6p5p3-------------------10-10-10-10\-8-8-8-|
Gb|-----5p4p2-----5p4p2-----5p4p2-----5p4p2-5p2-----------------------------|
Db|--------------------------------------------5p3-0-/12--------------------|
Ab|-------------------------------------------------------------------------|
Db|-------------------------------------------------------------------------|

eb|-8/-9/10-10-10-10---------------------------------------------------------|
Bb|-8/-9/10-10-10-10---------8-10-8h10p8\6--8-10-8h10p8\6--8-10-8h10p8\6-----|
Gb|------------------12^(14)--------------7--------------7--------------7-12-|
Db|--------------------------------------------------------------------------|
Ab|--------------------------------------------------------------------------|
Db|--------------------------------------------------------------------------|

eb|-------------------------------------------------------------------------|
Bb|-------------------------------------------------------------------------|
Gb|-12^(14)-----------------------------------------------------------/5-7--|
Db|---------5^(7)-----3-6-5-3-6-5-3-6-5-3-6-3-3-6-3-3----------3-5-5^-------|
Ab|---------------------------------------------------5----3-5--------------|
Db|-------------------------------------------------------------------------|

eb|-------------------------------------------------------------------------|
Bb|---------------10101010--10101010--10101010--1010101010-12^--------------|
Gb|-101010101010--10101010--10101010--10101010--1010101010-12^-------10-12^-|
Db|-------------12--------12--------12--------12----------------------------|
Ab|-------------------------------------------------------------------------|
Db|-------------------------------------------------------------------------|

eb|-------------|
Bb|-12^-12^-12^-|
Gb|-12^-12^-12^-|
Db|-------------|
Ab|-------------|
Db|-------------|


Order:
intro
riff 1 x4
riff 2 x2
riff 3 x2
main riff/verse intro x1
main riff/verse x7
pre-chorus x1
main riff/verse intro x1
main riff/verse x7
pre-chorus x1
main riff/verse intro x1
main riff/verse x1
guitar solo x1
main riff/verse intro x1
main riff/intro x5
pre-chorus x1
main riff/verse intro x1
main riff/verse x3
riff 1 x2
riff 3 x2
intro x1


| /  slide up
| \  slide down
| h  hammer-on
| p  pull-off
| ~  vibrato
| +  harmonic
| x  Mute note
===============================================================================
Tap to rate this tab
# A B C D E F G H I J K L M N O P Q R S T U V W X Y Z