Kyuss - Thee Ol Boozeroony tab

Thee Ol' Boozeroony - Kyuss
From the 1995 album "...And The Circus Leaves Town"

I was just casually playing my guitar a few days ago (as you do) 
and I stumbled upon the riff for this song. So I decided to 
tab it out. I played it along with the track and it sounds 
spot on.  If you think it's wrong, dont hate.. Each person 
listens with a different pair of ears. I suggest listening 
to  the track through headphones with one  ear piece in at a 
time to get the timing for each guitar.
Enjoy.
Popeye

popeye--doyle@hotmail.com

Tuning: Standard. Down 2 full steps. (C-F-Bb-Eb-G-C)

/:  Slide
\:  Slide Back
h:  Hammer on
po: Pull Off
p:  Palm Mute
b:  Bend
>:  Bend up
<:  Bend down
~:  Vibrato

Intro:
|---------------------------------------------------------|
|---------------------------------------------------------|
|----13h16-------13h16----------13h16-------13h16---------|
|----------14~---------15~------------14~---------15~-----|
|---------------------------------------------------------|
|---------------------------------------------------------|

Intro 2 (Heavy Distortion):
|-------------------0------------------------------0-----------|
|-------------------0------------------------------0-----------|
|-------------------1------------------------------1-----------|
|-12/14-14-14-14-14-2------------10/12-12-12-12-12-2-----------|
|-12/12-12-12-12-14-2-(let ring)-10/12-12-12-12-12-2-(let ring)| 4x
|-10/12-12-12-12-12-0------------8-/10-10-10-10-10-0-----------|

Riff (1a):
|--------------------------------------------------------------------|
|--------------------------------------------------------------------|
|-------------13~--15po13----13-13------------13~--15po13--13-13-----|
|-------12h14----14--------14------15~---12h14---14------14-----15~--|
|--------------------------------------------------------------------|
|0pm0pm--------------------------------------------------------------|

|-------------------------------------------------------|
|-------------------------------------------------------|
|-------------13~---15po13----13-13-------------13~13---|
|-------12h14----14--------14-------15~---12h14---------|
|-------------------------------------------------------|
|0pm0pm-------------------------------------------------|


Unmuted "E" shape and "G6" shape are up strokes

|0pm-0----0pm-0-----------|
|0pm-0----0pm-0-----------|
|0pm-1----0pm-0-----------|
|0pm-2----0pm-5-----------|
|0pm-2----0pm-5-----------|
|0pm-0----0pm-3-----------|

Riff (1b): guitar 1
|---------------------------------------------------------------------------|
|---------------------------------------------------------------------------|
|-------------13~---15po13----13-13-------------13~----15po13----13-13------|
|-------12h14----14--------14-------15~---12h14-----14--------14-------15~--|
|---------------------------------------------------------------------------|
|0pm0pm---------------------------------------------------------------------|

Riff (1b) guitar 2
|---------------------------------------------------------------------------|
|---------------------------------------------------------------------------|
|------------13~---15po13----13-13-----------13~----15po13-15b>16<15po13----|
|-------12h14---14--------14-------15~-12h14-----14----------------------14-|
|---------------------------------------------------------------------------|
|0pm0pm---------------------------------------------------------------------|


|-------------------------------------------------------|
|-------------------------------------------------------|
|-------------13~---15po13----13-13-------------13~13---|
|-------12h14----14--------14-------15~---12h14---------|
|-------------------------------------------------------|
|0pm0pm-------------------------------------------------|

|0pm-0----0pm-0-----------|
|0pm-0----0pm-0-----------|
|0pm-1----0pm-0-----------|
|0pm-2----0pm-5-----------|
|0pm-2----0pm-5-----------|
|0pm-0----0pm-3-----------|

Riff (2a):

|------------------------------------------------|
|--------15/17-15-15-15h17-17-17-17-17-17-17-17--|
|------------------------------------------------|
|------------------------------------------------|
|------------------------------------------------|
|0pm0pm------------------------------------------|

Riff (2b)

|------------------------------------------------|
|--------15/17-15----15h17-17-17-17-17-17-17-17--|
|-----------------16-----------------------------| x6
|------------------------------------------------|
|------------------------------------------------|
|0pm0pm------------------------------------------|

|----------------------------------------------|
|--------15/17-15----15h17-17-17-17-17-17-17---|
|-----------------16---------------------------|
|----------------------------------------------|
|----------------------------------------------|
|0pm0pm----------------------------------------|

Riff (1b)
|---------------------------------------------------------------------------|
|---------------------------------------------------------------------------|
|------------13~---15po13----13-13-----------13~----15po13-15b>16<15po13----|
|2pm2pm-12h14---14--------14-------15~-12h14-----14----------------------14-|
|2pm2pm---------------------------------------------------------------------|
|0pm0pm---------------------------------------------------------------------|


Riff (1a): guitar 1
|-------------------------------------------------------|
|-------------------------------------------------------|
|-------------13~---15po13----13-13-------------13~13---|
|-------12h14----14--------14-------15~---12h14---------|
|-------------------------------------------------------|
|0pm0pm-------------------------------------------------|

Riff (1c): guitar 2
|-------------------------------------------------------|
|-------------------15----------------------------------|
|-------------13~------13-------13-13-15--------13~13---|
|-------12h14----14-------15--------------12h14---------|
|-------------------------------------------------------|
|0pm0pm-------------------------------------------------|


|0pm-0----0pm-0-----------|
|0pm-0----0pm-0-----------|
|0pm-1----0pm-0-----------|
|0pm-2----0pm-5-----------|
|0pm-2----0pm-5-----------|
|0pm-0----0pm-3-----------|


Guitar 1
|----------------------------------------|
|----------------------------------------|
|-------------13~---15po13----13-13------|
|2pm2pm-12h14----14--------14-------15~--|
|2pm2pm----------------------------------|
|0pm0pm----------------------------------|

|--------------------------------------------------------------------------|
|-------------------15~--------------------------15~-----------------------|
|-------------13~------13~-----------------13~------13~------------13\-----|
|-------12h14----14-------15~--------12h14----14-------15~---12h14---------|
|--------------------------------------------------------------------------|
|0pm0pm-----------------------0pm0pm---------------------------------------|

Guitar 2
|-----------------------------------------------|
|-----------------------------------------------|
|-------------13~---15po13-15b>16<15po13--------|
|-------12h14----14----------------------14-----|
|-----------------------------------------------|
|0pm0pm-----------------------------------------|

|--------------------------------------------------------------------------|
|-------------15--------------------------------15>16<15-------------------|
|------13~-------13-15b>16<15-------------13-------------13~-----------13\-|
|12h14----14------------------15----12h14----14--------------15~-12h14-----|
|--------------------------------------------------------------------------|
|--------------------------------------------------------------------------|

|0pm-0----0pm-0-----------|
|0pm-0----0pm-0-----------|
|0pm-1----0pm-0-----------|
|0pm-2----0pm-5-----------|
|0pm-2----0pm-5-----------|
|0pm-0----0pm-3-----------|


|-------|-----------------------------------------|
|-------|-15/17-15----15h17-17-17-17-17-17-17-----|
|-------|----------16-----------------------------| x3
|-------|-----------------------------------------|
|-------|-----------------------------------------|
|0pm0pm-|-----------------------------------------|

|-------|-----------------------------------------|
|-------|-15/17-15----15/17-17-17-15/17-17-17-----|
|-------|----------16-----------------------------| x4
|-------|-----------------------------------------|
|-------|-----------------------------------------|
|0pm0pm-|-----------------------------------------|

|-------------------------------------------------|
|---------15/17-15----15/17-17-17-15/17-17--------|
|------------------16-----------------------------|
|-------------------------------------------------|
|-------------------------------------------------|
|0pm0pm-------------------------------------------|

|-------------------0------------------------------0-----------|
|-------------------0------------------------------0-----------|
|-------------------1------------------------------1-----------|
|-12/14-14-14-14-14-2------------10/12-12-12-12-12-2-----------|
|-12/12-12-12-12-14-2-(let ring)-10/12-12-12-12-12-2-(let ring)| x6
|-10/12-12-12-12-12-0------------8-/10-10-10-10-10-0-----------|

Let last chord strum ring out to end.
Tap to rate this tab
 
# A B C D E F G H I J K L M N O P Q R S T U V W X Y Z