Guitaretab - guitar tabs
Song name
# A B C D E F G H I J K L M N O P Q R S T U V W X Y Z

Kyuss - Catamaran tab

Kyuss - Catamaran
From the album '...And The Circus Leaves Town' - 1995


Riff
====

Part I
e|-------------------------------------------------------------------------|
B|-------------------------------------------------------------------------|
G|---0---0--0--0---0-/0--0-0---0---0---7--7--7---0--0--0--0-0--------------|
D|---10--10-10-10--10/12---12--12--8---8--8--8---10-10-10---10-------------|
A|---8---8--8--8---8-/10---10--10--6---6--6--6---11-11-11---0--------------|
E|-------------------------------------------------------------------------|

|--------------------------------------------------------------------------|
|--------------------------------------------------------------------------|
|----0---0--0--0---0-/0--0-0---0---10--------------------------------------|
|----10--10-10-10--10/12---12--12--8---------------------------------------|
|----8---8--8--8---8-/10---10--10------------------------------------------|
|--------------------------------------------------------------------------|



Part II
e|-------------------------------------------------------------------------|
B|-------------------------------------------------------------------------|
G|---0---0--0--0---0-/0--0-0---0---0---7--7--7---0--0--0--0-0--------------|
D|---10--10-10-10--10/12---12--12--8---8--8--8---10-10-10---10-------------|
A|---8---8--8--8---8-/10---10--10--6---6--6--6---11-11-11---0--------------|
E|-------------------------------------------------------------------------|
[ Tab from: http://www.guitaretab.com/k/kyuss/250145.html ]
|--------------------------------------------------------------------------|
|--------------------------------------------------------------------------|
|----0---0--0--0---0-/0--0-0---0---0---0-----------------------------------|
|----10--10-10-10--10/12---12--12--10--10----------------------------------|
|----8---8--8--8---8-/10---10--10--8---8-----------------------------------|
|--------------------------------------------------------------------------|

............................................................................


Verse
=====
        Smooth stones         beneath me...
|--------------------------------------------------------------------------|
|--------------------------------------------------------------------------|
|----8---8--8--8---8--8---8---8-----7--7---7-----0-0--0--------------------|
|----10--10-10-10--10-10--10--10----8--8---8---8---8--8--------------------|
|----8---8--8--8---8--8---8---8-----8--8---8---6---6--6--------------------|
|-----------------------------------6--6---6-------------------------------|

............................................................................


Refrain
=======

(heavy fuzz)
|---------------------------------------|
|---------------------------------------|
|---------------------------------------|
|---------------------8-----------------|
|----8--------4-------6-------4---------|
|----6--------2---------------2---------|

............................................................................

Structure
=========

Then just carry on, following the song structure:

Intro/Riff (Part I, II)
Verse
Riff (only part I)
Refrain
Riff
Verse
Riff (only part I)
Refrain
Riff, then finish.
Related for Catamaran tab
Catamaran chords by Kyuss