Song name
# A B C D E F G H I J K L M N O P Q R S T U V W X Y Z

Kyuss - Mudfly tab

Mudfly- Kyuss
Tune to C or it sounds like poop.
Posted by CavemanJB on UG.  Feel free to copy and paste to other sites.

Enjoy!  And somebody please post an accurate bass tab for this.


Intro, Outro, and Middle Section.  Listen to the track for where the bends go.

E|-----------------------------6b7-----12------------12b14-|
B|---------------------------------------14b16-----14------|
G|---------------------3b4---------------------------------|
D|--22222--2222--------------------------------------------|
A|--22222--2222--------------------------------------------|
E|--00000--0000--------------------------------------------|


1st Wah Section

           x3                          x4
E|--------------------------  ---------------------------|
B|------2-------2-0-2-0-----  -----2---0-2-0-----2-0-----|
G|--3-0-----3-0---------3-4-  -3-0-----------3-0-----3-4-|
D|--------------------------  ---------------------------|
A|--------------------------  ---------------------------|
E|--------------------------  ---------------------------|

           x1
E|-----------------------------|
B|------2-0-----2-0-2-0-2-0-2--|
G|--3-0-----3-0----------------|
D|-----------------------------|
A|-----------------------------|
E|-----------------------------|


2nd Wah Section

        x3                             x2
E|--------------------------  ---------------------------|
B|------2-------2-0-2-0-----  -----2---0-2-0-----2-0-----|
G|--3-0-----3-0---------3-4-  -3-0-----------3-0-----3-4-|
D|--------------------------  ---------------------------|
A|--------------------------  ---------------------------|
E|--------------------------  ---------------------------|
        x1
E|---------------------------------|
B|------2-0-----2-0-2-0-2-0--------|
G|--3-0-----3-0-------------3-4----|
D|---------------------------------|
A|---------------------------------|
E|---------------------------------|

         x1                               x1
E|----------------------------   --------------------------|
B|------2---0---------2-0-----   -----2---0-2-0-2-0-2-0-2--|
G|--3-0-------3-0-3-0-----3-4-   -3-0----------------------|
D|----------------------------   --------------------------|
A|----------------------------   --------------------------|
E|----------------------------   --------------------------|
Tap to rate this tab
 
# A B C D E F G H I J K L M N O P Q R S T U V W X Y Z