Song name
# A B C D E F G H I J K L M N O P Q R S T U V W X Y Z

Kyuss - Thee Ol Boozeroony tab

Thee ol' boozeroony
-----------------------------------------------------------------------------
Tabbed by: Shotgun Jesus

Tuning: C standard, low to high : C F A# D# G C


intro:

1st guitar:
C |--------------------------------------------------------------------|
G |--9h12---9h12-------9h12---9h12-------------------------------------|
D#|-------9------10~--------9------10~---------------------------------|
A#|--------------------------------------------------------------------|
F |--------------------------------------------------------------------|
C |--------------------------------------------------------------------|


2nd guitar:
C |--------------------------------------------------------------------|
G |--12p9---12p9--------12p9---12p9------------------------------------|
D#|-------9------10~---------9------10~--------------------------------|
A#|--------------------------------------------------------------------|
F |--------------------------------------------------------------------|
C |--------------------------------------------------------------------|


play x 4
C |--------------------0-------------------------------0---------------|
G |--------------------0-------------------------------0---------------|
D#|--------------------x-------------------------------x---------------|
A#|--12/14-14-14-14-14-2--------------9/12-12-12-12-12-2---------------|
F |--12/14-14-14-14-14-2--------------9/12-12-12-12-12-2---------------|
C |--10/12-12-12-12-12-0--------------7/10-10-10-10-10-0---------------|



both guitars play x 3
C |--------------------------------------------------------------------|
G |--------------------------------------------------------------------|
D#|------------13~-13-15-13----13-13-----------------------------------|
A#|------12h14--------------14-------15~-------------------------------|
F |--------------------------------------------------------------------|
C |-0-0----------------------------------------------------------------|
pm  * *

both play
C |-------------------x----x---------------------------------------------|
G |-------------------x----x---------------------------------------------|
D#|------------13~-13-x----x---------------------------------------------|
A#|------12h14--------x-3--x-6-------------------------------------------|
F |-------------------x-3--x-6-------------------------------------------|
C |-0-0---------------x-1--x-4-------------------------------------------|
pm  * *


both guitars play x 1
C |--------------------------------------------------------------------|
G |--------------------------------------------------------------------|
D#|------------13~-13-15-13----13-13-----------------------------------|
A#|------12h14--------------14-------15~-------------------------------|
F |--------------------------------------------------------------------|
C |-0-0----------------------------------------------------------------|
pm  * *


guitar 1 play                                                           guitar 2 plays
C |-------------------------------------||---------------------------------------------|
G |-------------------------------------||---------------------------------------------|
D#|------------13~-13-15-13----13-13----||-----------13~-13-15-13--15-15b17r15p13------|
A#|------12h14--------------14-------15~||-----12h14-------------------------------15~-|
F |-------------------------------------||---------------------------------------------|
C |-0-0---------------------------------||-0-0-----------------------------------------|
pm  * *                                    * *


both guitars play
C |--------------------------------------------------------------------|
G |--------------------------------------------------------------------|
D#|------------13~-13-15-13----13-13-----------------------------------|
A#|------12h14--------------14-------15~-------------------------------|
F |--------------------------------------------------------------------|
C |-0-0----------------------------------------------------------------|
pm  * *


both play
C |-------------------x----x---------------------------------------------|
G |-------------------x----x---------------------------------------------|
D#|------------13~-13-x----x---------------------------------------------|
A#|------12h14--------x-3--x-6-------------------------------------------|
F |-------------------x-3--x-6-------------------------------------------|
C |-0-0---------------x-1--x-4-------------------------------------------|
pm  * *




both play x 8
C |--------------------------------------------------------------------|
G |------15b17r15~~-----15s17-17-17-17-17-17-17------------------------|
D#|----------------(16)------------------------------------------------|
A#|--------------------------------------------------------------------|
F |--------------------------------------------------------------------|
C |-0-0----------------------------------------------------------------|
pm  * *


both play
C |-------------------------------------------| 
G |-------------------------------------------| 
D#|------------13~-13-15-13----13-13----------| 
A#|------12h14--------------14-------15~------| 
F |-------------------------------------------| 
C |-0-0---------------------------------------| 
pm  * * 


both play
C |----------------------------------------------------|
G |----------------------------------------------------|
D#|------------13~-13-15-13--15-15b17r15p13------------|
A#|------12h14--------------------------------15~------|
F |----------------------------------------------------|
F |----------------------------------------------------| 
C |-0-0------------------------------------------------|
pm  * *|


guitar 1 play                                    guitar 2 play
C |---------------------------------------| |---------------------------------------|
G |---------------------------------------| |--------------------15-----------------|
D#|------------13~-13-15-13----13-13------| |------------13~-13-----13----13-13-15--|
A#|------12h14--------------14-------15~--| |------12h14---------------14-----------|
F |---------------------------------------| |---------------------------------------|
C |-0-0-----------------------------------| |-0-0-----------------------------------|
pm  * *                                       * *


both play
C |-------------------x----x---------------------------------------------|
G |-------------------x----x---------------------------------------------|
D#|------------13~-13-x----x---------------------------------------------|
A#|------12h14--------x-3--x-6-------------------------------------------|
F |-------------------x-3--x-6-------------------------------------------|
C |-0-0---------------x-1--x-4-------------------------------------------|
pm  * *


guitar 1 play                                     guitar 2 play
C |-------------------------------------||----------------------------------------------|
G |-------------------------------------||----------------------------------------------|
D#|------------13~-13-15-13----13-13----||------------13~-13-15-13--15-15b17r15p13------|
A#|------12h14--------------14-------15~||-----12h14--------------------------------15~-|
F |-------------------------------------||----------------------------------------------|
C |-0-0---------------------------------||-0-0------------------------------------------|
pm  * *                                       * *


guitar 1 play                                     guitar 2 play
C |---------------------------------||-------------------------------------------------|
G |-------------------15~-----------||-------------------15----------------------------|
D#|------------13~-13-----13~-------||------------13~-13----13--15-15b(17)r15p13-------|
A#|------12h14---------------15~----||-----12h14-----------------------------------15~-|
F |---------------------------------||-------------------------------------------------|
C |-0-0-----------------------------||-0-0---------------------------------------------|
pm  * *                                     * *


guitar 1 play                                     guitar 2 play
C |--------------------------------------||--------------------------------------|
G |-------------------15~----------------||-------------------15b17r15-----------|
D#|------------13~-13-----13~------------||------------13~-13----------13~-------|
A#|------12h14---------------15~---------||------12h14---------------------15~---|
F |--------------------------------------||--------------------------------------|
C |-0-0----------------------------------||-0-0----------------------------------|
pm  * *                                     * *


C |-------------------x----x---------------------------------------------|
G |-------------------x----x---------------------------------------------|
D#|------------13~-13-x----x---------------------------------------------|
A#|------12h14--------x-3--x-6-------------------------------------------|
F |-------------------x-3--x-6-------------------------------------------|
C |-0-0---------------x-1--x-4-------------------------------------------|
pm  * *

guitar 1 play x 8 , guitar 2 play x 3
C |--------------------------------------------------------------------|
G |------15b17r15~~-----15s17-17-17-17-17-17-17------------------------|
D#|----------------(16)------------------------------------------------|
A#|--------------------------------------------------------------------|
F |--------------------------------------------------------------------|
C |-0-0----------------------------------------------------------------|
pm  * *


then guitar 2 play x 5
C |--------------------------------------------------------------------|
G |------15b17r15~~-----15s17-17-17-15s17-17-17------------------------|
D#|----------------(16)------------------------------------------------|
A#|--------------------------------------------------------------------|
F |--------------------------------------------------------------------|
C |-0-0----------------------------------------------------------------|
pm  * *


both play x 6
C |--------------------0-------------------------------0---------------|
G |--------------------0-------------------------------0---------------|
D#|--------------------x-------------------------------x---------------|
A#|--12/14-14-14-14-14-2--------------9/12-12-12-12-12-2---------------|
F |--12/14-14-14-14-14-2--------------9/12-12-12-12-12-2---------------|
C |--10/12-12-12-12-12-0--------------7/10-10-10-10-10-0---------------|
Tap to rate this tab
 
# A B C D E F G H I J K L M N O P Q R S T U V W X Y Z