Kyuss - One Inch Man tab

One Inch Man                                   
-----------------------------------------------------------------------------
Tabbed by: Shotgun Jesus

Tuning: C standard, low to high : C F A# D# G C

C |------------------------|
G |------------------------|
D#|------------------------|
A#|------------------------|
F |-9b11r9b11r9b11r9~------|
C |------------------------|


C |-----------------------------------------------------------|
G |-----------------------------------------------------------|
D#|-----------------------------------------------------------|
A#|-----------------------------------------------------------|
F |-9---9---9-9-9-9---9-9-9---9-9-9-9---9---9---9-9-9---9-9-9-|
C |-----------------------------------------------------------|
pm: *   *   * * *     * *     * * * *   *   *   * *     * *


C |------------------------------------------------------------------------|
G |------------------------------------------------------------------------|
D#|------------------------------------------------------------------------|
A#|------------------------------------------------------------------------|
F |-9-9-9-9---9---9---9-9-9---9-9-9---9-9-9-9---9---9---9---9---9--9-9-9-9-|
C |------------------------------------------------------------------------|
pm: * * * *   *   *   * *     * *     * * * *   *   *   *  


C |---------------------------------------------|
G |---------------------------------------------|
D#|---------------------------------------------|
A#|---------------------------------------------|
F |-9----9-9-9-9-9-9----9-9-9-------------------|
C |---------------------------------------------|
pm: *    * * * * *      * *


C |---------------------------------------------|
G |---------------------------------------------|
D#|---------------------------------------------|
A#|---------------------------------------------|
F |-9-9-9-9----9-9-9-9-9-9----9-9-9-------------|
C |---------------------------------------------|
pm: * * * *    * * * * *      * *

C |---------------------------------------------|
G |---------------------------------------------|
D#|---------------------------------------------|
A#|---------------------------------------------|
F |-9-9-9-9----9-9-9-9-9-9----9-9-9-------------|
C |---------------------------------------------|
pm: * * * *    * * * * *      * *

C |---------------------------------------------|
G |---------------------------------------------|
D#|---------------------------------------------|
A#|---------------------------------------------|
F |-9-9-9-9----9-9-9-9-9----9---9---9----9-9-9--|
C |---------------------------------------------|
pm: * * * *    * * * * *






riff A,    play x 7
C |---------------------------------------|
G |---------------------------------------|
D#|----------12p11------------------------|
A#|----------------12---------------------|
F |-9---9-9-----------9---9-9-9---9-9-9---|
C |---------------------------------------|
pm: *   * *           *   * *     * * *


C |----------------------------------------|
G |----------------------------------------|
D#|---------12p11--------------9h11--9h11--|
A#|---------------12-----------------------|
F |-9--9-9-----------9--9-9-9--------------|
C |----------------------------------------|
pm: *  * *           *  * * *


play riff A x 1


C |----------------------------------------|
G |----------------------------------------|
D#|---------12p11--------------9h11~-------|
A#|---------------12-----------------------|
F |-9--9-9-----------9--9-9-9--------------|
C |----------------------------------------|
pm: *  * *           *  * * *


play riff A x 3


C |----------------------------------------|
G |----------------------------------------|
D#|---------12p11--------------9h11--9h11--|
A#|---------------12-----------------------|
F |-9--9-9-----------9--9-9-9--------------|
C |----------------------------------------|
pm: *  * *           *  * * *


play riff A x 5


C |-------------------------------------|
G |-------------------------------------|
D#|---------12p11-----------------------|
A#|---------------12--------------------|
F |-9--9-9-----------9---9---9---9-9-9--|
C |-------------------------------------|
pm: *  * *           *   *   *   * * *



riff B
C |----------------------------------------|
G |----------------------------------------|
D#|----------------------------------------|
A#|-7-7-7-7-7-7-7-7--9-9-9-9--10-10-10-10--|
F |-7-7-7-7-7-7-7-7--9-9-9-9--10-10-10-10--|
C |-5-5-5-5-5-5-5-5--7-7-7-7---8--8--8-8---|



play riff A x 2

play riff B x 1

play riff A x 1



play x 2
C |-----------------------------------|
G |-----------------------------------|
D#|---------12p11---------------11b13-|
A#|---------------12------------------|
F |-9--9-9-----------9---9-9-9--------|
C |-----------------------------------|
pm: *  * *           *   * * *


C |------------------------------------|
G |-----------------------------12b13--|
D#|---------12p11----------------------|
A#|---------------12-------------------|
F |-9--9-9-----------9---9-9-9---------|
C |------------------------------------|
pm: *  * *           *   * * *



C |---------------------------12b13-|
G |---------------------------------|
D#|--------12p11--------------------|
A#|--------------12-----------------|
F |-9--9-9----------9---9-9-9-------|
C |---------------------------------|
pm: *  * *          *   * * *


C |--------------------------------------|
G |--------------------------------------|
D#|---------12p11--------------9h11-9h11-|
A#|---------------12---------------------|
F |-9--9-9-----------9---9-9-9-----------|
C |--------------------------------------|
pm: *  * *           *   * * *


play x 3
C |-----------------------------------|
G |-----------------------------12b13-|
D#|---------12p11---------------------|
A#|---------------12------------------|
F |-9--9-9-----------9---9-9-9--------|
C |-----------------------------------|
pm: *  * *           *   * * *


C |-----------------------------------|
G |-----------------------------------|
D#|--------12p11----------------------|
A#|--------------12-------------------|
F |-9--9-9----------9---9-9-9-9-9-9-9-|
C |-----------------------------------|
pm: *  * *          *   * * * * * * *


play x7
C |----------------------------------|
G |----------------------------------|
D#|-11-9-11-9-11-9-11-9-11-9-11-9-9~-|
A#|----------------------------------|
F |----------------------------------|
C |----------------------------------|


C |----------------------12b14~-------|
G |-------12b14-----------------------|
D#|-11-9---------9-11-9---------------|
A#|-----------------------------------|
F |-----------------------------------|
C |-----------------------------------|



play riff B x 1

play riff A x 2

play riff B x 1



play x 4
C |----------------------------|
G |----------------------------|
D#|----------------------------|
A#|-4--4-4-4--4-4-4--10--9--7--|
F |-4--4-4-4--4-4-4--10--9--7--|
C |-2--2-2-2--2-2-2---8--7--5--|

play x x3
C |-------------------------------------------------------------------------|
G |---------------------13~13---------------------------------------13~13---|
D#|(9)---9-11-9-11-9-11-------11-9~--(9)---9-11-9-11-9-11-9-11-9-11------11~|
A#|---11--------------------------------11----------------------------------|
F |-------------------------------------------------------------------------|
C |-------------------------------------------------------------------------|


C |---------------------------------------------------------------------|
G |----------------------13~13-----------13~13----------13b14-----------|
D#|(9)---9-11-9-11-9-11--------11-9~---9-------11-9~--9-------11-9~-----|
A#|---11----------------------------------------------------------------|
F |---------------------------------------------------------------------|
C |---------------------------------------------------------------------|



C |-----------------------------------------|
G |-----------------------------------------|
D#|-7-7-7--7-7-7-7--9-9-9-9--10-10-10-10-10-|
A#|-7-7-7--7-7-7-7--9-9-9-9--10-10-10-10-10-|
F |-5-5-5--5-5-5-5--7-7-7-7---8--8--8--8--8-|
C |-5-5-5--5-5-5-5--7-7-7-7---8--8--8--8--8-|

play riff A x 2

C |-----------------------------------------|
G |-----------------------------------------|
D#|-7-7-7--7-7-7-7--9-9-9-9--10-10-10-10-10-|
A#|-7-7-7--7-7-7-7--9-9-9-9--10-10-10-10-10-|
F |-5-5-5--5-5-5-5--7-7-7-7---8--8--8--8--8-|
C |-5-5-5--5-5-5-5--7-7-7-7---8--8--8--8--8-|

                                 x2
C |----------------------------------|
G |----------------------------12b13-|
D#|---------12p11--------------------|
A#|---------------12-----------------|
F |-9--9-9-----------9---9-9-9-------|
C |----------------------------------|
pm: *  * *           *   * * *


C |------------------------------------------|
G |------------------------------------------|
D#|-7-7-7--7-7-7-7--9-9-9-9--10-10-----------|
A#|-7-7-7--7-7-7-7--9-9-9-9--10-10-------4---|
F |-5-5-5--5-5-5-5--7-7-7-7---8--8-------4---|
C |-5-5-5--5-5-5-5--7-7-7-7---8--8-------2---|
Tap to rate this tab
 
# A B C D E F G H I J K L M N O P Q R S T U V W X Y Z