Song name
# A B C D E F G H I J K L M N O P Q R S T U V W X Y Z

Kyuss - Hurricane tab

Hurricane
-----------------------------------------------------------------------------
Tabbed by: Shotgun Jesus

Tuning: C standard, low to high : C F A# D# G C

1st riff

C |--------------------------------------------------------------------|
G |--------------------------------------------------------------------|
D#|--------------------------------------------------------------------|
A#|-11-11-11-/14\-11-11-11-/13\-11-11-11----9-9-10-10------------------|
F |-11-11-11-/14\-11-11-11-/13\-11-11-11-------------------------------|
C |-9--9--9--/12\-9--9--9--/11\-9--9--9--------------------------------|

2nd riff

C |--------------------------------------------------------------------|
G |--------------------------------------------------------------------|
D#|--------------------------------------------------------------------|
A#|-11-11-11-/14\-11-11-11-/13\-11-11-11----10-10-9-9------------------|
F |-11-11-11-/14\-11-11-11-/13\-11-11-11-------------------------------|
C |-9--9--9--/12\-9--9--9--/11\-9--9--9--------------------------------|

chorus

C |--------------------------------------------------------------------|
G |--------------------------------------------------------------------|
D#|--------------------------------------------------------------------|
A#|-11-11-14-14-14-13-13-13-13-13-13-13-13-13-13-13-13-13-13-13-13-13--|
F |-11-11-14-14-14-13-13-13-13-13-13-13-13-13-13-13-13-13-13-13-13-13--|
C |-9--9--12-12-12-11-11-11-11-11-11-11-11-11-11-11-11-11-11-11-11-11--|

C |--------------------------------------------------------------------|
G |--------------------------------------------------------------------|
D#|--------------------------------------------------------------------|
A#|-13-13-13-12-12-12--------------------------------------------------|
F |-13-13-13-12-12-12--------------------------------------------------|
C |-11-11-11-10-10-10--------------------------------------------------|

outro:

C |--------------------------------------------------------------------|
G |--------------------------------------------------------------------|
D#|--------------------------------------------------------------------|
A#|-11-11-10-10-9-9-8-8-7-7-6-6-5-5-4-4-3-3-2-2-(2)--------------------|
F |-11-11-10-10-9-9-8-8-7-7-6-6-5-5-4-4-3-3-2-2-(2)--------------------|
C |-9--9--8--8--7-7-6-6-5-5-4-4-3-3-2-2-1-1-0-0-(0)--------------------|


riff 1 x 3
riff 2
riff 1 x 3
riff 2
riff 1
riff 2
riff 1
riff 2
riff 1
riff 2
riff 1 x 3
riff 2 x 1
chorus x 4
riff 1
riff 2
riff 1
riff 2
riff 1
riff 2
riff 1
riff 2
riff 1
riff 2
chorus x 4
outro
Tap to rate this tab
# A B C D E F G H I J K L M N O P Q R S T U V W X Y Z