Song name
# A B C D E F G H I J K L M N O P Q R S T U V W X Y Z

Kyuss - Un Sandpiper tab

Kyuss - Un Sandpiper
C Standard

INTRO (Bass)                       x4
c-----------------------------------|
G-----------------------------------|
Eb----------------------------------|
Bb------7p5p0-----------------------|
F--0-00-------3-0--00---------------|
C---------------------5p3p0 3-5-55--|
 
 
MAIN RIFF                                                                x4
c-------------------------------------------------------------------------|
G-------------------------------------------------------------------------|
Eb------------------------------------------------------------------------|
Bb---7-77p5---5h7/9-7--77p5---5h7/9-7--77p5---5h7/9-10-10-9-10/12-10-9-7--|
F-----------7---------------7---------------7-----------------------------|
C-------------------------------------------------------------------------|

VERSE                                                      x5
c------------------------------------------------------------|
G-----------------------------------------14p12----14-12~----|
Eb-14-xx-xx-xx--14-xx-xx-xx--14-xx-xx-xx--------14-----------|
Bb-14-xx-xx-xx--14-xx-xx-xx--14-xx-xx-xx---------------------|
F--12-xx-xx-xx--12-xx-xx-xx--12-xx-xx-xx---------------------|
C------------------------------------------------------------|

1:47
MAIN RIFF                                                                x4
c-------------------------------------------------------------------------|
G-------------------------------------------------------------------------|
Eb------------------------------------------------------------------------|
Bb---7-77p5---5h7/9-7--77p5---5h7/9-7--77p5---5h7/9-10-10-9-10/12-10-9-7--|
F-----------7---------------7---------------7-----------------------------|
C-------------------------------------------------------------------------|


Any corrections please comment
Thanks
Tap to rate this tab
 
# A B C D E F G H I J K L M N O P Q R S T U V W X Y Z