Song name
# A B C D E F G H I J K L M N O P Q R S T U V W X Y Z

Kyuss - Allens Wrench tab

Allen's Wrench by Kyuss		
from Blues For The Red Sun


INTRO                                                   x2
c--------------------------------------------------------|
G--------------------------------------------------------|
Eb-------------------------------------------------------|
Bb--------5-5---------5-5----------5-5-------------------|
F-----------------------------------------------3h5-3h5--|
C--5--5-5------5--5-5------5--5-5-------5--5-5--3h5-3h5--|


VERSE                                                   x2
c--------------------------------------------------------|
G--------------------------------------------------------|
Eb-------------------------------------------------------|
Bb--------5-5---------5-5----------5-5-------------------|
F-----------------------------------------------3h5-3h5--|
C--5--5-5------5--5-5------5--5-5-------5--5-5--3h5-3h5--|


PRE CHORUS                                                x2
c----------------------------------------------------------|
G----------------------------------------------------------|
Eb-----------------------------------5-5-------------------|
Bb---------5-5----------8-8--------------------------------|
F-------------------------------------------------3h5-3h5--|
C--5--5-5-------5--5-5-------5--5-5-------5--5-5--3h5-3h5--|


CHORUS                                  x4
c----------------------------------------|
G----------------------------------------|
Eb--------------------------------5-5-5--|
Bb-55-5555-55--8-8-8--55-5555-55---------|
F--55-5555-55---------55-5555-55---------|
C--55-5555-55---------55-5555-55---------|


OUTRO                x7
c---------------------|
G---------------------|
Eb--------------------|
Bb-55-5555--3-2-0-00--|
F--55-5555--3-2-0-00--|
C--55-5555--3-2-0-00--|

Any corrections please comment
Thanks
Tap to rate this tab
 
# A B C D E F G H I J K L M N O P Q R S T U V W X Y Z