Song name
# A B C D E F G H I J K L M N O P Q R S T U V W X Y Z

Kyuss - No tab

N.O by Kyuss
from Welcome To Sky Valley

INTRO
c--------------------------|------------------------|
G--------------------------|on the last-------------|
Eb-------------------------|9 on the C string-------|
Bb-------------------------|guitar 2 plays->---9-9--|
F--------14-12-------------|during-------------9-9--|
C--12-12-------12-14p12-9--|0:04 to 0:09-------9-9--|

                          x9
c--------------------------|
G--------------------------|
Eb-------------------------|
Bb-------------------------|
F--------14-12-------------|
C--12-12-------12-14p12-9--|


VERSE 0:23
c---------------------------------------------------|
G---------------------------------------------------|
Eb--------------------------------------------------|
Bb-5-5-5-5-5-5-5-5-5-5-5-5-4-4-4-4-4-4-7-7-7-7-7-7--|
F--5-5-5-5-5-5-5-5-5-5-5-5-4-4-4-4-4-4-7-7-7-7-7-7--|
C--5-5-5-5-5-5-5-5-5-5-5-5-4-4-4-4-4-4-7-7-7-7-7-7--|

0:30                                                      x2
c----------------------------------------------------------|
G----------------------------------------------------------|
Eb---------------------------------------------------------|
Bb---------------------------------------------------------|
F----------5-7-5-7b-7-5---5-8----------5-7-5-7b-7-5---5----|
C--7-9-9-9--------------9------7-9-9-9--------------9---9--|

0:42                                                     x2
c---------------------------------------------------------|
G---------------------------------------------------------|
Eb--------------------------------------------------------|
Bb---------5-7-5-7b-7-5---5-8----------5-7-5-7b-7-5--5----|
F--5-7-7-7--------------7------5-7-7-7--------------7--7--|
C---------------------------------------------------------|

0:53                                                         x1                  x4
c-------------------------------------------------------------|----7--------------|
G-------------------------------------------------------------|--7----------------|
Eb------------------------------------------------------------|------10-10/12-10--|
Bb-3-3-3-3-3-3-3-3-3-3-3-3-3-3-3-2-2-2-2-2-2-2-2-2-2-2-2-2-2--|-------------------|
F--3-3-3-3-3-3-3-3-3-3-3-3-3-3-3-2-2-2-2-2-2-2-2-2-2-2-2-2-2--|-------------------|
C--3-3-3-3-3-3-3-3-3-3-3-3-3-3-3-2-2-2-2-2-2-2-2-2-2-2-2-2-2--|-------------------|


OUTRO
c-------------------------|
G-------------------------|
Eb----------11~--10~--9~--|repeat
Bb-----7-9--11~--10~--9~--|until song
F--7-9-5-7--9~---8~---7~--|ends
C--7-9--------------------|

Any corrections please comment
Thanks
Tap to rate this tab
# A B C D E F G H I J K L M N O P Q R S T U V W X Y Z