Song name
# A B C D E F G H I J K L M N O P Q R S T U V W X Y Z

Kyuss - Thong Song tab

Thong Song by Kyuss
from Blues For The Red Sun


INTRO  palm muted                               play this until 0:52
c------------------------------------------------------------------|
G------------------------------------------------------------------|
Eb-----------------------------------------------------------------|
Bb-----5-----10------5-----10------5-----10-----5-----10--5---7-5--|
F------5-----10------5-----10------5-----10-----5-----10--5-5-7-5--|
C--0-0---0-0-----0-0---0-0-----0-0---0-0-----0-0--0-0-------5------|


0:53
c------------------------------------------------------------|
G------------------------------------------------------------|
Eb-----------------------------------------------------------|
Bb-555555555555------5-----10------5-----10--55555555555555--|
F--555555555555------5-----10------5-----10--55555555555555--|
C--555555555555--0-0---0-0-----0-0---0-0-----55555555555555--|

the song repeats the above 2 parts until 2:11

2:11 OUTRO
c---------------------------------------------|
G---------------------------------------------|
Eb--------------------------------------------|play this
Bb-000000-5-000000-10-000000-5-0-3-0-2-0-2p0--|until the
F--000000-5-000000-10-000000-5-0-3-0-2-0-2p0--|song ends
C--000000-5-000000-10-000000-5-0-3-0-2-0-2p0--|


Any corrections please comment
Thanks
Tap to rate this tab
 
# A B C D E F G H I J K L M N O P Q R S T U V W X Y Z