Song name
# A B C D E F G H I J K L M N O P Q R S T U V W X Y Z

Kyuss - Demon Cleaner tab

-------------------------------------------------------------------------------
                             Demon Cleaner - Kyuss
-------------------------------------------------------------------------------
Tabbed by:Brownbear93
        
Email:mudfly93@yahoo.com


Tuning:low to high: C F Bb Eb G C

Intro:
                                              x3
|----------------------------------------------|----------------------------------------------|
|----------------------------------------------|----------------------------------------------|
|-------12-10~---12-10-12-14b(15)r-12~--14-----|------12-10~---12-10-12-14b-1414b-1414b-1414b-|
|------------------------------------------12~-|----------------------------------------------|
|----------------------------------------------|----------------------------------------------|
|---10-----------------------------------------|---10-----------------------------------------|

Verse Riff:
                  x3
|-------------------|--------------------------|
|-------------------|--------------------------| 
|-------------------|--------------------8-----|
|--7---5h7----------|--7---5h7-----5-5h7-------|
|--5-5----5---5-/8--|--5-5----5----------------|
|-------------------|--------------------------|

1st Chorus:
|----------------------------------------------------------------------------|
|----------------------------------------------------------------------------|
|-----/10-8~-10-8-10~----/10-8~-10-8-10~----/8-7~-8-7~---/8-7~-8-7~----------|
|----------------------------------------------------------------------------|
|--5-------------------5------------------5------------5---------------------|
|----------------------------------------------------------------------------|

|----------------------------------------------------------------------------|
|----------------------------------------------------------------------------|
|-----/10-8~-10-8-10~----/10-8~-10-8-10~----/8-7~-8-7~---/8-7-7h8p7h8p7------|
|----------------------------------------------------------------------------|
|--5-------------------5------------------5------------5---------------------|
|----------------------------------------------------------------------------|


2nd Chorus:
|----------------------------------------------|----------------------------------------------|
|----------------------------------------------|----------------------------------------------|
|-------12-10~---12-10-12-14b(15)r-12~--14-----|------12-10~---12-10-12-14b-1414b-1414b-1414b-|
|------------------------------------------12~-|----------------------------------------------|
|----------------------------------------------|----------------------------------------------|
|---10-----------------------------------------|---10-----------------------------------------|

|----------------------------------------------|----------------------------------------------|
|----------------------------------------------|---------13-15b(gradual)-------------r--------|
|-------12-10~---12-10-12-14b(15)r-12~--14-----|--12-14---------------------------------------|
|------------------------------------------12~-|----------------------------------------------|
|----------------------------------------------|----------------------------------------------|
|---10-----------------------------------------|----------------------------------------------|


3rd Chorus:
|--------------------------------------| x4
|--------------------------------------|
|----7---7---7---7---7---7---7--5~-----|
|--------------------------------------|
|--5---5---5---5---5---5---5----3~-----|
|--------------------------------------|

|-------------------| 
|-------------------| x9
|----7---7---7---7--|
|-------------------|
|--5---5---5---5----|
|-------------------|

|------------------------------------------------------------------------------------|
|------------------------------------------------------------------------------------| x3
|----7---7---7---7---7---7---7---5---5---5---5/7\3---3---3---3---5---7---7---7---7---|
|------------------------------------------------------------------------------------|
|--5---5---5---5---5---5---5---3---3---3---3-------1---1---1---1--/5---5---5---5-----|
|------------------------------------------------------------------------------------|


"I am the demon cleaner..."
|----------------------------------------------------------------------------------------------|
|----------------------------------------------------------------------------------------------| x3
|--7--7-7--7-7-7--7-7-7-7--5--5-5--5-5-5--5-5-5-5--3--3-3--3-3-3--3-3-3/5-5--7--7-7--7-7-7--7--|
|--7--7-7--7-7-7--7-7-7-7--5--5-5--5-5-5--5-5-5-5--3--3-3--3-3-3--3-3-3/5-5--7--7-7--7-7-7--7--|
|--5--5-5--5-5-5--5-5-5-5--3--3-3--3-3-3--3-3-3-3--1--1-1--1-1-1--1-1-1/3-3--5--5-5--5-5-5--5--|
|----------------------------------------------------------------------------------------------|

Solo

|---------------------------------------------------------------------------|
|---------------------------------------------------------------------------|
|--/14~14-14~-14-14~-14-14~-14-14~-14-14~-14-14-14-14~-12-12-14~-12-14------|
|---------------------------------------------------------------------------|
|---------------------------------------------------------------------------|
|---------------------------------------------------------------------------|

|----------------------------------------------------|
|----------13-15-13-15b(15-15-15-15-15)r-15br-15-13--|
|-12-12h14-------------------------------------------|
|----------------------------------------------------|
|----------------------------------------------------|
|----------------------------------------------------|

|-------------------------------------------------------------------------------------|
|-13h15p13----13h15p13----13h15p13----13h15p13----13h15p13----13h15p13----13h15p13----|
|----------14----------14----------14----------14----------14----------14----------14-|
|-------------------------------------------------------------------------------------|
|-------------------------------------------------------------------------------------|
|-------------------------------------------------------------------------------------|

|------------------------------------------------------------------------------|
|-13h15p13----13h15p13----13h15p13----13h15p13----13h15p13-15b-15b-15b-15b-----|
|----------14----------14----------14----------14------------------------------|
|------------------------------------------------------------------------------|
|------------------------------------------------------------------------------|
|------------------------------------------------------------------------------|


|--------------------------------------------------------------------------------------|
|-13h15p13----13-----------------------------------------------------------------------|
|----------14---14/12-10-12b-10-12b-10-12b-----12-10h12p10----10-12-10-12-10-12b--12---|
|----------------------------------------------------------12--------------------------|
|--------------------------------------------------------------------------------------|
|--------------------------------------------------------------------------------------|

|-----------------------------------------------|
|-----------------------------------------------|
|---10--9--10--9--/7--9--7--/9--10--9--10-/12---|
|-----------------------------------------------|
|-----------------------------------------------|
|-----------------------------------------------|

|--------------------------------------------------------------------------------|
|--15b-15--13-13h15p13----13-15-13-15-13---15b-15--13-13h15p13----13-15-13-15-13-|
|----------------------14--------------------------------------14----------------|
|--------------------------------------------------------------------------------|
|--------------------------------------------------------------------------------|
|--------------------------------------------------------------------------------|

|--------------------------------------------------------------------------------------|
|--15b-15--13-13h15p13----13h15p13----13h15p13----13h15p13----13h15p13----13h15p13-----|
|----------------------14----------14----------14----------14----------14----------14--|
|--------------------------------------------------------------------------------------|
|--------------------------------------------------------------------------------------|
|--------------------------------------------------------------------------------------|

|-----------------------------------------------------------|
|--13h15p13----13h15p13----13h15p13----13h15p13----13tr15---|
|-----------14----------14----------14----------14----------|
|-----------------------------------------------------------|
|-----------------------------------------------------------|
|-----------------------------------------------------------|

|------------------------------------------------------------------------|
|--15b-15-13h15p13----13-------------------------------------------------|
|------------------14----14\12-10-12b-12-rp10----10------10-12p10----10--|
|---------------------------------------------12------12----------12-----|
|------------------------------------------------------------------------|
|------------------------------------------------------------------------|

|----------------------------------------------------------------|
|------13------------------13------------------13----------------|
|--12b----12rp10----10-12b----12rp10----10-12b----12rp10----10~--|
|----------------12------------------12------------------12------|
|----------------------------------------------------------------|
|----------------------------------------------------------------|


|--------------------------------------------------------------------------------------|
|--------------------------------------------------------------------------------------|
|-----10-12p10----10-12p10----10-12p10----10-12p10----10-12p10----10-12p10----10-12p10-|
|--12----------12----------12----------12----------12----------12----------12----------|
|--------------------------------------------------------------------------------------|
|--------------------------------------------------------------------------------------|


|----------------------------------------------------------------------------|
|----------------------------------------------------------------------------|
|-----10-12p10----10-12p10----10-12p10----10-12p10----10-12p10----10-12p10---|
|--12----------12----------12----------12----------12----------12------------|
|----------------------------------------------------------------------------|
|----------------------------------------------------------------------------|

|--------------------------------------------------|
|--------------------------------------------------|
|-----10-12p10-12p10-12p10-12p10-12b-12-rp10-------|
|--12----------------------------------------12~---|
|--------------------------------------------------|
|--------------------------------------------------|

|-------------------------------------------------------------------------------------------------|
|-------------------------------------------------------------------------------------------------|
|------------17h19-------17h19-------17h19-------17h19-------17h19-------17h19-------17h19--------|
|-----/17h19-------17h19-------17h19-------17h19-------17h19-------17h19-------17h19-------17h19--|
|-------------------------------------------------------------------------------------------------|
|-------------------------------------------------------------------------------------------------|

|----------------------------------------------------------------------------------------|
|----------------------------------------------------------------------------------------|
|--17h19--------17h19------17h19-------17h19-17h19-19b-19---17h19p17----17---------------|
|--------17h19-------17h19-------17h19-------------------------------19----19\17-17/19~--|
|----------------------------------------------------------------------------------------|
|----------------------------------------------------------------------------------------|



************************************

| /   slide up
| \   slide down
| h   hammer-on
| p   pull-off
| ~   vibrato
| +   harmonic
| x   Mute note
| b   Bend
| pb  Pre-bend
| br  Bend release
| pbr Pre-bend release
| brb Bend release bend
| tr  Trill

************************************
Tap to rate this tab
# A B C D E F G H I J K L M N O P Q R S T U V W X Y Z