Song name
# A B C D E F G H I J K L M N O P Q R S T U V W X Y Z

Kyuss - Gardenia tab

-------------------------------------------------------------------------------
                             Gardenia - Kyuss
-------------------------------------------------------------------------------
Tabbed by:Brownbear93
E-mail:mudfly93@yahoo.com

Tuning:C F Bb Eb G C

Opening tune off of the great Sky Valley
Please rate or comment with improvements/feedback

Intro

|-----------------------------------------------------|
|-----------------------------------------------------|
|-----------------------------------------------------|
|-----------------------------------------------------|
|-17-17-17-17h19-19-19-19b-19-19b-19-19b-19-17-17-17--|
|--0--0--0--0-----0--0--0---0--0---0--0---0--0--0--0--|

|---------------------------------------------|
|---------------------------------------------|
|---------------------------------------------|x6
|---------------------------------------------|
|--17h19-19-19-19b-19-19b-19-19b-19-17-17-17--|
|---0-----0--0--0---0--0---0--0---0--0--0--0--|

|----------------------------------------|
|----------------------------------------|
|----------------------------------------|
|----------------------------------------|
|--17h19-19-19-19b-19-19b-19-19b-19-19/--|
|---0-----0--0--0---0--0---0--0---0--0---|

|--------------------------------------------------------------------|
|--------------------------------------------------------------------|
|--------------------------------------------------------------------|
|--------------------------------------------------------------------|
|-9/10101010--1010--1010--10101010--9/10101010-101010/12121212121212-|
|-7/-8-8-8-8---8-8---8-8---8-8-8-8--7/-8-8-8-8--8-8-8/10101010101010-|

|---------------------------------------------------------------------------------|
|---------------------------------------------------------------------------------|
|---------------------------------------------------------------------------------|
|---------------------------------------------------------------------------------|
|--17h19-19-19-19b-19-19b-19-19b-19-17-17-17-17h19-19-19-19b-19-19b-19-19b-19-19/-|
|---0-----0--0--0---0--0---0--0---0--0--0--0--0-----0--0--0---0--0---0--0---0--0--|

|--------------------------------------------------------------------|
|--------------------------------------------------------------------|
|--------------------------------------------------------------------|
|--------------------------------------------------------------------|
|-9/10101010--1010--1010--10101010--9/10101010-101010/12121212121212-|
|-7/-8-8-8-8---8-8---8-8---8-8-8-8--7/-8-8-8-8--8-8-8/10101010101010-|

|-------------------------------------|
|-------------------------------------|
|-------------------------------------|
|-12/14141414-\9---121212/14141414-\9-|
|-10/12121212-\7---101010/12121212-\7-|
|-------------------------------------|

|--------------------------------------------------------------------------------------|
|--------------------------------------------------------------------------------------|
|--------------------------------------------------------------------------------------|
|--------------------------------------------------------------------------------------|
|-/17h19-19-19-19b-19-19b-19-19b-19-17-17-17-17h19-19-19-19b-19-19b-19-19b-19-17-17-17-|
|---0-----0--0--0---0--0---0--0---0--0--0--0--0-----0--0--0---0--0---0--0---0--0--0--0-|

|---------------------------------------------|
|---------------------------------------------|
|---------------------------------------------|
|---------------------------------------------|
|--17h19-19-19-19b-19-19b-19-19b-19-17-17-17--|
|---0-----0--0--0---0--0---0--0---0--0--0--0--|

|---------------------------------|
|---------------------------------|
|------------------------------12~|
|------------------------12h14----|
|-17h19-19-19-19b-19-19-----------|
|--0-----0--0--0---0--0-----------|


Verse

|---------------------------------------------|
|---------------------------------------------|
|---------------------------------------------|x3
|---------------------------------------------|
|--17h19-19-19-19b-19-19b-19-19b-19-17-17-17--|
|---0-----0--0--0---0--0---0--0---0--0--0--0--|

|------------------------------------|
|------------------------------------|
|------------------------------------|
|-------------------------12-14--14b-|
|--17h19-19-19-19b-19-19-------------|
|---0-----0--0--0---0--0-------------|

|---------------------------------------------|
|---------------------------------------------|
|---------------------------------------------|x3
|---------------------------------------------|
|--17h19-19-19-19b-19-19b-19-19b-19-17-17-17--|
|---0-----0--0--0---0--0---0--0---0--0--0--0--|

|----------------------------------------|
|----------------------------------------|
|----------------------------------------|
|----------------------------------------|
|--17h19-19-19-19b-19-19b-19-19b-19-19/--|
|---0-----0--0--0---0--0---0--0---0--0---|


Chorus

|--------------------------------------------------------------------|
|--------------------------------------------------------------------|
|--------------------------------------------------------------------|
|--------------------------------------------------------------------|
|-9/10101010--1010--1010--10101010--9/10101010-101010/12121212121212-|
|-7/-8-8-8-8---8-8---8-8---8-8-8-8--7/-8-8-8-8--8-8-8/10101010101010-|

|-------------------------------------------------------|
|-------------------------------------------------------|
|--14--12----14-12--14-12--14-12-14-12--14b--12--14-14b-|
|--14--12----14-12--14-12--14-12-14-12--14b--12--14-14b-|
|-------------------------------------------------------|
|-------------------------------------------------------|

|--------------------------------------------------------------------|
|--------------------------------------------------------------------|
|--------------------------------------------------------------------|
|--------------------------------------------------------------------|
|-9/10101010--1010--1010--10101010--9/10101010-101010/12121212121212-|
|-7/-8-8-8-8---8-8---8-8---8-8-8-8--7/-8-8-8-8--8-8-8/10101010101010-|

|------------------------------------------|
|------------------------------------------|
|------------------------------------------|
|-12/14141414-\9---121212/141414141414-14b-|
|-10/12121212-\7---101010/121212121212-12b-|
|------------------------------------------|

|---------------------------------------------|
|---------------------------------------------|
|---------------------------------------------|
|---------------------------------------------|
|--17h19-19-19-19b-19-19b-19-19b-19-17-17-17--|
|---0-----0--0--0---0--0---0--0---0--0--0--0--|

|------------------------------------|
|------------------------------------|
|------------------------------------|
|-------------------------12-14--14~-|
|--17h19-19-19-19b-19-19-------------|
|---0-----0--0--0---0--0-------------|


Verse 2

|---------------------------------------------|
|---------------------------------------------|
|---------------------------------------------|
|---------------------------------------------|
|--17h19-19-19-19b-19-19b-19-19b-19-17-17-17--|
|---0-----0--0--0---0--0---0--0---0--0--0--0--|

|------------------------------------|
|------------------------------------|
|------------------------------------|
|-------------------------12-14--14~-|
|--17h19-19-19-19b-19-19-------------|
|---0-----0--0--0---0--0-------------|

|---------------------------------------------|
|---------------------------------------------|
|---------------------------------------------|
|---------------------------------------------|
|--17h19-19-19-19b-19-19b-19-19b-19-17-17-17--|
|---0-----0--0--0---0--0---0--0---0--0--0--0--|

|------------------------------------------------------------------------------|
|------------------------------------------------------------------------------|
|-------------------------12h14-14b--12----------------------------------------|
|---------------------------------------14~------------------------------------|
|--17h19-19-19-19b-19-19----------------------19-19b-19-19b-19-19b-19-17-17-17-|
|---0-----0--0--0---0--0-----------------------0--0---0--0---0--0---0--0--0--0-|

|---------------------------------------------|
|---------------------------------------------|x2
|---------------------------------------------|
|---------------------------------------------|
|--17h19-19-19-19b-19-19b-19-19b-19-17-17-17--|
|---0-----0--0--0---0--0---0--0---0--0--0--0--|

|------------------------------------------------|
|------------------------------------------------|
|------------------------------------------------|
|------------------------------------------------|
|--17h19-19-17-19-19-17-19-19-17-19-17-19-17-19/-|
|---0-----0--0--0--0--0--0--0--0--0--0--0--0--0--|


Chorus 2

|--------------------------------------------------------------------|
|--------------------------------------------------------------------|
|--------------------------------------------------------------------|
|--------------------------------------------------------------------|
|-9/10101010--1010--1010--10101010--9/10101010-101010/12121212121212-|
|-7/-8-8-8-8---8-8---8-8---8-8-8-8--7/-8-8-8-8--8-8-8/10101010101010-|

|-------------------------------------------------------|
|-------------------------------------------------------|
|--14--12----14-12--14-12--14-12-14-12--14b--12--14-14b-|
|--14--12----14-12--14-12--14-12-14-12--14b--12--14-14b-|
|-------------------------------------------------------|
|-------------------------------------------------------|

|--------------------------------------------------------------------|
|--------------------------------------------------------------------|
|--------------------------------------------------------------------|
|--------------------------------------------------------------------|
|-9/10101010--1010--1010--10101010--9/10101010-101010/12121212121212-|
|-7/-8-8-8-8---8-8---8-8---8-8-8-8--7/-8-8-8-8--8-8-8/10101010101010-|


|--------------------------------------------------------------------|
|-------------/19~---------------/20~------------/21~----------------|
|--------------------------------------------------------------------|
|--14p12--14---------14p12--14---------14p12-14----------14-12~---9--|
|-----------------------------------------------------------------7--|
|-----------------------------------------------------------------0--|

|----------------------------------------------|
|----------------------------------------------|
|----------------------------------------------|
|--12-12-12--9-----12-12-12--9-----12-12-12--9-|
|--10-10-10--7-----10-10-10--7-----10-10-10--7-|
|------------0---------------0---------------0-|

Solo: w/ wah and i'm assuming some kind of crazy delay effect

|------------------------------------------------------------------|
|--------------------------------------------<12>--------15--------|
|--------------------------------------------<12>--------14b-----r-|
|--------------------------------------------<12>------------------|
|--15h17~--17~---17~---17~-----17~----17~--------------------------|
|------------------------------------------------------------------|

|--------------------------------15b--------------------------------------------|
|-----------------------14---12-------------------------------------------------|
|-------------------12--14------------------------------------------------------|
|-14--------12---14-----14----------------14~------14/11--11/12/13/14/--\-------|
|-------------------------------------------------------------------------------|
|-------------------------------------------------------------------------------|

|-xxx--x--x--xx--xxxxxx--x-x-x--xx--xxxxxx--xxx-x--x--xx--xxxxxxx-x-xxxxx-x-xxxxx-|
|-xxx--x--x--xx--xxxxxx--x-x-x--xx--xxxxxx--xxx-x--x--xx--xxxxxxx-x-xxxxx-x-xxxxx-|
|-xxx--x--x--xx--xxxxxx--x-x-x--xx--xxxxxx--xxx-x--x--xx--xxxxxxx-x-xxxxx-x-xxxxx-|
|-xxx--x--x--xx--xxxxxx--x-x-x--xx--xxxxxx--xxx-x--x--xx--xxxxxxx-x-xxxxx-x-xxxxx-|
|---------------------------------------------------------------------------------|
|---------------------------------------------------------------------------------|

|----------<12>-----<12>------------------------------------------|
|---<12>-------<12>----------------<7>-----<7>-----------<7>------|
|---<12>------------------------<7>----<7>------------<7>---------|
|-----------------------------------------------------------------|
|-----------------------------------------------------------------|
|-----------------------------------------------------------------|

|--------------------<12>-----------<12>----------------------|
|--<12>-<12>----<12>------------<12>---------------<7>---<7>--|
|--<12>-----<12>--------------------------------<7>----<7>----|
|-------------------------------------------------------------|
|-------------------------------------------------------------|
|-------------------------------------------------------------|


|-xxx--x--x--xx--xxxxxx--x-x-x--xx--xxxxxx--xxx-x--x--xx--xxxxxxx-x-xxxxx-x-xxxxx-----|
|-xxx--x--x--xx--xxxxxx--x-x-x--xx--xxxxxx--xxx-x--x--xx--xxxxxxx-x-xxxxx-x-xxxxx-----|
|-xxx--x--x--xx--xxxxxx--x-x-x--xx--xxxxxx--xxx-x--x--xx--xxxxxxx-x-xxxxx-x-xxxxx-----|
|-xxx--x--x--xx--xxxxxx--x-x-x--xx--xxxxxx--xxx-x--x--xx--xxxxxxx-x-xxxxx-x-xxxxx---9-|
|-----------------------------------------------------------------------------------7-|
|-----------------------------------------------------------------------------------0-|


|-------------------------------------------------------------------------------------|
|-------------------------------------------------------------------------------------|
|-------------------------------------------------------------------------------------|
|-------------------------------------------------------------------------------------|
|-5-7-7-7-7-7-7-7-7-7-7-7-7-7-5-7-7-7-7-7-7-7-7-7-7-7-7-7-5-7-7-7-7-7-7-7-7-7-7-7-7-7-|
|-------------------------------------------------------------------------------------|
PM...................................................................................


|-------------------------------------------------------------|
|-------------------------------------------------------------|
|-------------------------------------------------------------|x4
|---------------5------------------------------------------5--|
|-5-7-7-7-7-7-7-5-7-7-7-7-7-7-5-7-7-7-7-7-7-7--5-7-5-7-5-7----|
|-------------------------------------------------------------|
PM.............   ........................................

Fill
|----------------------------------------------------|
|----------------------------------------------------|
|----------------------------------------------------|
|----12-14--x14~------------------5------------------|
|-----------------------------5h7------5h7-5h7-5h7---|
|----------------------------------------------------|

|---------------------------------------------------------------------------------------|
|---------------------------------------------------------------------------------------|
|---------------------------------------------------------------------------------------|
|---------------5-----------------------------------------9-9-9-9-9-9-9-9-9-9-9-9-9-9-9-|
|-5-7-7-7-7-7-7-5-7-7-7-7-7-7-5-7-7-7-7-7-7-7-7-7-7-7-7-7-7-7-7-7-7-7-7-7-7-7-7-7-7-7-7-|
|---------------------------------------------------------0-0-0-0-0-0-0-0-0-0-0-0-0-0-0-|
PM.......................................................


Chorus 3

|--------------------------------------------------------------------|
|--------------------------------------------------------------------|
|--------------------------------------------------------------------|
|--------------------------------------------------------------------|
|-9/10101010--1010--1010--10101010--9/10101010-101010/12121212121212-|
|-7/-8-8-8-8---8-8---8-8---8-8-8-8--7/-8-8-8-8--8-8-8/10101010101010-|

|----------------------------------------|
|--------14b--14b-12--14b-12---14-12-14b-|
|--12h14-14b--14b-12--14b-12---14-12-14b-|
|--12h14-14b--14b-12--14b-12---14-12-14b-|
|----------------------------------------|
|----------------------------------------|

|--------------------------------------------------------------------|
|--------------------------------------------------------------------|
|--------------------------------------------------------------------|
|--------------------------------------------------------------------|
|-9/10101010--1010--1010--10101010--9/10101010-101010/12121212121212-|
|-7/-8-8-8-8---8-8---8-8---8-8-8-8--7/-8-8-8-8--8-8-8/10101010101010-|


|-----------------------------------------------------------------|
|-------------/19~---------------/20~------------/21~-------------|
|-----------------------------------------------------------------|
|--14p12--14---------14p12--14---------14p12-14----------14-12~---|
|-----------------------------------------------------------------|
|-----------------------------------------------------------------|


Outro

                               x4                                  x4
|---------------------------------|---------------------------------|
|---------------------------------|---------------------------------|
|---------------------------------|---------------------------------|
|-----12---9----12---9----12---12-|-----12---9----12---9----12---9--|
|-----10---7----10---7----10---10-|-----10---7----10---7----10---7--|
|--00----0---00----0---00----0----|--00----0---00----0---00----0----|
PM...    .   ..    .   ..    .       ..    .   ..    .   ..    .
                               x4                                  x4
|---------------------------------|---------------------------------|
|---------------------------------|---------------------------------|
|---------------------------------|---------------------------------|
|-----12---9----12---9----12---12-|-----12---9----12---9----12---9--|
|-----10---7----10---7----10---10-|-----10---7----10---7----10---7--|
|--00----0---00----0---00----0----|--00----0---00----0---00----0----|
PM...    .   ..    .   ..    .       ..    .   ..    .   ..    .
                             x4                                   Repeat until fade out
|------------------------------|----------------------------------------|
|------------------------------|----------------------------------------|
|------------------------------|----------------------------------------|
|-------9-----9-9------9-----9-|----9----9-9----9----9-9----9----9-9----|
|-------7-----7-7------7-----7-|----7----7-7----7----7-7----7----7-7----|
|-00000---000-----0000---000---|-00---00-----00---00-----00---00-----00-|
PM.....   ...     ....   ...     ..   ..     ..   ..     ..   ..     ..


************************************

| /   slide up
| \   slide down
| h   hammer-on
| p   pull-off
| ~   vibrato
| +   harmonic
| x   Mute note
| b   Bend
| pb  Pre-bend
| br  Bend release
| pbr Pre-bend release
| brb Bend release bend
| <>  Natural Harmonic
************************************
Tap to rate this tab
 
# A B C D E F G H I J K L M N O P Q R S T U V W X Y Z