Song name
# A B C D E F G H I J K L M N O P Q R S T U V W X Y Z

Kyuss - Odyssey tab

-------------------------------------------------------------------------------
                             Odyssey - Kyuss
-------------------------------------------------------------------------------
Tabbed by:Brownbear93

Tuning:C F Bb Eb G C

Intro:
|---------------------------------------------------------------------------|
|---------------------------------------------------------------------------|
|---------------------------------------------------------------------------|
|--7h9--9----9----9-10p7---10p7---7---7-7h9-9---9---9-10p7---10p7---9/12----|
|--7----7--7----7--------7------7-------7---7-7----7-------7------7--/10--10|
|---------------------------------------------------------------------------|

|---------------------------------------------------------------------------|
|---------------------------------------------------------------------------|
|---------------------------------------------------------------------------|
|----12--7h9--9----9----9-10p7---10p7---7--7-7h9-9---9---9-10p7---10p7----7-|
|-10-----7----7--7----7--------7------7------7---7-7---7--------7------7--7-|
|---------------------------------------------------------------------------|

Verse Riff:
|-------------------------------|
|-------------------------------|
|-------------------------------|x15
|--9--9-9-----------------5-----|
|--7--7-7-8p7-7-10p7-777--3-5---|
|--0------------------------3---|

|------------------------------------|
|------------------------------------|
|------------------------------------|
|--7h9-9-9--7h9-9-9--7h9-9--7h9-9-9--|
|--7---7-7--7---7-7--7---7--7---7-7--|
|------------------------------------|

Chorus:                 
|---------------------------------------------------------------------------------------|
|---------------------------------------------------------------------------------------|
|----------9~------------------9---9------------------9~------------------9---9---------|
|--9-9-888----12---12--9-9-888---8---12---12--9-9-888----12---12--9-9-888---8----12---12|
|--7-7--------10---10--7-7-----------10---10--7-7--------10---10--7-7------------10---10|
|--0-0-----------0-----0-0--------------0-----0-0-----------0-----0-0---------------0---|
PM            .......                .......             ........                .......

|--------------------------------|
|--------------------------------|
|--------------------------------|
|--9------------12-12-12-12-12---|
|--7------------10-10-10-10-10---|
|--0-----------------------------|

2nd Verse:
|-------------------------------|
|-------------------------------|
|-------------------------------|x7
|--9--9-9-----------------5-----|
|--7--7-7-8p7-7-10p7-777--3-5---|
|--0------------------------3---|

|------------------------------------|
|------------------------------------|
|------------------------------------|
|--7h9-9-9--7h9-9-9--7h9-9--7h9-9-9--|
|--7---7-7--7---7-7--7---7--7---7-7--|
|------------------------------------|

Chorus:                 
|---------------------------------------------------------------------------------------|
|---------------------------------------------------------------------------------------|
|----------9~------------------9---9------------------9~------------------9---9---------|
|--9-9-888----12---12--9-9-888---8---12---12--9-9-888----12---12--9-9-888---8----12---12|
|--7-7--------10---10--7-7-----------10---10--7-7--------10---10--7-7------------10---10|
|--0-0-----------0-----0-0--------------0-----0-0-----------0-----0-0---------------0---|
PM            .......                .......             ........                .......

|---------------------------------------------------------------------------------------|
|---------------------------------------------------------------------------------------|
|---------9---9br---------9---9br---------9---9br--------9---9br--------------9---------|
|-9-9-888---8-----9-9-888---8-----9-9-888---8----9-9-888---8--------------7-9---8~------|
|-7-7-------------7-7-------------7-7------------7-7---------------7-9-10---------------|
|-0-0-------------0-0-------------0-0------------0-0------------------------------------|


Solo:
|---------------------------------------------------------------------------------|
|---------------------------------------------------------------------------------|
|---------------------------------------------------------------------------------|
|---------------------------------------------------------------------------------|
|--10--10-12p10---10-10-10-12p10----10--10-12p10---10-10-10-12p10----10--10-12p10-|
|--------------------------------12-------------------------------12--------------|

|---------------------------------------------------------------------------------|
|---------------------------------------------------------------------------------|
|---------------------------------------------------------------------------------|
|---------------------------------------------------------------------------------|
|-10-10-10-12p10----10--10-12p10---10-10-10-10h12p10-----------10h12-12brp10----10|
|----------------12----------------------------------12---10h12--------------12---|

|---------------------------------------------------------------------------------|
|---------------------------------------------------------------------------------|
|---------------------------------------------------------------------------------|
|---------------------------------------------------------------------------------|
|-10----------10h12-12brp10----10--10------------10h12-12brp10----10--10-12-------|
|----12--10h12--------------12--------12xx--10h12--------------12-----------xxx---|

|---------------------------------------------------------------------------------|
|---------------------------------------------------------------------------------|
|---------------------------------------------------------------------------------|
|------------------------12h14-14~------------------------------12h14--14~--------|
|------10h12--10/12-12h14------------------10h12-----10/12-12h14------------------|
|-10h12----------------------------10-10h12-----10-10---------------------10-10h12|

|---------------------------------------------------------------------------------|
|---------------------------------------------------------------------------------|
|---------------------------------------------------------------------------------|
|---------------------12h14-14~------------------------------12h14-14~-12h14p12---|
|10h12-----10/12-12h14------------------10h12-----10/12-12h14-------------------14|
|-----10-10---------------------10-10h12-----10-10--------------------------------|

|---------------------------------------------------------------------------------------|
|----------------------------------------12-12-12b-12------------------14-14-12-14p12---|
|----------------------------------------12-12-12b-12---------------12-14-14-12-14p12---|
|----14--12-14-12-14-12------------12-14--------------14---12-12h14-------------------14|
|-14-------------------14----12-14------------------------------------------------------|
|---------------------------------------------------------------------------------------|

|---------------------------------------------------------------------|
|-------------14-14-12-14p12-14p12-14p12-14p12-14p12-14p12-14b--------|
|----------12-14-14-12-14p12-14p12-14p12-14p12-14p12-14p12-14b--------|
|-12-12h14------------------------------------------------------------|
|---------------------------------------------------------------------|
|---------------------------------------------------------------------|

Bridge:
|-----------------------------------------------------------------------------|
|-----------------------------------------------------------------------------|
|-----------------------------------------------------------------------------|
|-7h9-9---9---9---10p7---10p7---7--7-7h9-9---9---9---10p7---10p7---7------12/-|
|-7---7-7---7---7------7------7-7----7---7-7---7---7------7------7-7-7/10-----|
|-----------------------------------------------------------------------------|

|-----------------------------------------------------------------------------|
|-----------------------------------------------------------------------------|
|-----------------------------------------------------------------------------|
|-7h9-9---9---9---10p7---10p7---7----------12-7h9-9---9---9---10p7---10p7---7-|
|-7---7-7---7---7------7------7-7--7/10-10----7---7-7---7---7------7------7-7-|
|-----------------------------------------------------------------------------|

|-----------------------------------------------------------------------------|
|-----------------------------------------------------------------------------|
|-----------------------------------------------------------------------------|
|-7-7h9---9---9--10p7---10p7---9/12--7h9-9---9---9---10p7---10p7---7------12--|
|---7---7---7---------7------7--/10--7---7-7---7---7------7------7-7-7/10-----|
|-----------------------------------------------------------------------------|

|----------------------------------------|
|----------------------------------------|
|----------------------------------------|
|-7h9-9-9---9---9---9---10p7---10p7---7--|
|-7---7---7---7---7---7------7------7-7--|
|----------------------------------------|

3rd Verse:
|-------------------------------|
|-------------------------------|
|-------------------------------|x7
|--9--9-9-----------------5-----|
|--7--7-7-8p7-7-10p7-777--3-5---|
|--0------------------------3---|

|------------------------------------|
|------------------------------------|
|------------------------------------|
|--7h9-9-9--7h9-9-9--7h9-9--7h9-9-9--|
|--7---7-7--7---7-7--7---7--7---7-7--|
|------------------------------------|

Chorus:                 
|---------------------------------------------------------------------------------------|
|---------------------------------------------------------------------------------------|
|----------9~------------------9---9------------------9~------------------9---9---------|
|--9-9-888----12---12--9-9-888---8---12---12--9-9-888----12---12--9-9-888---8----12---12|
|--7-7--------10---10--7-7-----------10---10--7-7--------10---10--7-7------------10---10|
|--0-0-----------0-----0-0--------------0-----0-0-----------0-----0-0---------------0---|
PM            .......                .......             ........                .......

|-------------------------------------------------------------------------------------------|
|-------------------------------------------------------------------------------------------|
|---------9---9br---------9---9br---------9---9br--------9---9br----------------------------|
|-9-9-888---8-----9-9-888---8-----9-9-888---8----9-9-888---8-----9---------12-12-12-12-12-9-|
|-7-7-------------7-7-------------7-7------------7-7-------------7---------10-10-10-10-10-7-|
|-0-0-------------0-0-------------0-0------------0-0-------------0------------------------0-|


************************************

| /   slide up
| \   slide down
| h   hammer-on
| p   pull-off
| ~   vibrato
| +   harmonic
| x   Mute note
| b   Bend
| pb  Pre-bend
| br  Bend release
| pbr Pre-bend release
| brb Bend release bend
| PM  Palm Mute
************************************
Tap to rate this tab
# A B C D E F G H I J K L M N O P Q R S T U V W X Y Z