Song name
# A B C D E F G H I J K L M N O P Q R S T U V W X Y Z

Kyuss - Freedom Run tab

-------------------------------------------------------------------------------
                             Freedom Run - Kyuss
-------------------------------------------------------------------------------
Tabbed by:Brownbear93

Tuning:C F Bb Eb G C

Intro:w/delay
|---------------------------------------------------------------------------|
|-------------------------------------------17----17b----------18b----------|
|--12---------12----------15-------12---------------------------------------|
|----------------------------------------------------------------------12---|
|---------------------------------------------------------------------------|
|---------------------------------------------------------------------------|

|---------------------------------------------------------------------------------|
|------------------17-----20b-------------------20b-------------------------------|
|----15-----17-------------------17--------------------12-----15-------17------12-|
|---------------------------------------------------------------------------------|
|--------------------------------------12b----------------------------------------|
|---------------------------------------------------------------------------------|

1st Solo:
|--------------------------------------------------------------------------------------|
|--------------------------------------------------------------------------------------|
|-7br~-----7br~-----5h7p5-7br-5--------------------------------------------------------|
|-------------------------------7~---7\------9b-------9-9-9br----7h9p7~---0h7p0h7p0h7~-|
|--------------------------------------------------------------------------------------|
|--------------------------------------------------------------------------------------|

|-------------------------------------------------------------------|
|-------------------------------------------------------------------|
|------12---------12---------12---------12---------12---------12----|
|---14----14---14----14---14----14---14----14---14----14---14----14-|
|-0---------0-0---------0---------0-0---------0---------0-0---------|
|-------------------------------------------------------------------|

|--------------------------------------------|
|--------------------------------------------|
|------12h14----12h14----12h14----12h14-12~--|
|---14-------14-------14-------14------------|
|-0------------------------------------------|
|--------------------------------------------|

Main Riff: x2
|------------------------------------------------------------------------|
|------------------------------------------------------------------------|
|------12~-----------------------12~----------------12~------------------|
|------10~------12\11-12\11------10~--------12------10~------12/11-12/11-|
|-0000----0-000-10\9--10\9--0000----0-00000-10-0000----0-000-10/9--10/9--|
|------------------------------------------------------------------------|
PM....    .....             ....    .......    ....    .....

|------------------------------------|
|------------------------------------|
|------------------------------------|
|---10-9----------10-9------------10-|
|-0------0-10-9-0------0-10-9-0-0-10-|
|----------------------------------8-|

|-------------------------------------------------------------------------|
|-------------------------------------------------------------------------|
|-12--12-12-12/15-15-15\12-12---------------12--12-12-12/15-15-15\12-12---|
|-12--12-12-12/15-15-15\12-12---12\11-12\11-12--12-12-12/15-15-15\12-12---|
|-----------------------------0-10\9--10\9--------------------------------|
|-------------------------------------------------------------------------|

|--------------------------------------------------------------------------|
|--------------------------------------------------------------------------|
|----------------12~-------------------------------------------------------|
|--------12------10~------12/11-12/11---10-9----------10-9------------10---|
|-0-0000-10-0000----0-000-10/9--10/9--0------0-10-9-0------0-10-9-0-0-10---|
|----------------------------------------------------------------------8---|
PM.......    ....    .....        

Main Riff x2

Chorus
|------------------------------|
|------------------------------|
|------------------------------|x4
|----------/12-12-12-12-12-12--|
|-0-0000-0-/10-10-10-10-10-10--|
|------------------------------|

|-----------------------------------------------------------------------------|
|-----------------------------------------------------------------------------|
|--------------------------------12----------------------------------11-12----|x4
|----------/12-12-12-12-12-12-11----11----------/12-12-12-12-12-12-11------11-|
|-0-0000-0-/10-10-10-10-10-10----------0-0000-0-/10-10-10-10-10-10------------|
|-----------------------------------------------------------------------------|

Main Riff

2nd Solo (not 100% but should act as a good reference point)
|------------------------------------------------------------------------------------------|
|------------------------------------------------------------------------------------------|
|--7b-r~--7b-r~--5h7p5-7br-5---------------------------------------------------------------|
|----------------------------7~--7/--------------5h7-7br~--7/9~--9/12~--0h12p0h12p0h12-12~-|
|--------------------------------------------5h7-------------------------------------------|
|----------------------------------------5h7-----------------------------------------------|

|------------------------------------------------------------------------------------------|
|------------------------------------------------------------------------------------------|
|-----14----14-----------14----12~-------------14----12~----------12~----------12----------|
|--14----14-14--12b---14----14----14-12~----14----14----14-12~-14----14-12~-14----14-12-14-|
|------------------------------------------------------------------------------------------|
|------------------------------------------------------------------------------------------|

|------------------------------------------------------------------------------------------|
|------------------------------------------------------------------------------------------|
|------------------------------------14-14-14-12---12-12-12-12-12-12-12-12-12-12-12-12-12--|
|-12----------12----------12---------14-14-14-14b--14b14b14b14b14b14b14b14b14b14b14b14b14b-|
|----14-12-14----14-12-14----14-12-14------------------------------------------------------|
|------------------------------------------------------------------------------------------|

|------------------------------------------------------------------------------------------|
|------------------------------------------------------------------------------------------|
|12-12-12-12-12-12-12-12-12-12-12-12-12----------------------------------------------------|
|14b14b14b14b14b14b14b14b14b14b14b14b14br-10-12br-10----10-12br-10----10-12brp10---------10|
|----------------------------------------------------12------------12------------12-10h12--|
|------------------------------------------------------------------------------------------|

|--------------------------------------------------------------------------/17-17-17----12-|
|------------------------------------------------------------------------------------15-15b|
|----------------------------10--10-10-10-10-10-10-10-10-10-10-10-10-10--------------------|
|------10------10------10-12-12b-12b12b12b12b12b12b12b12b12b12b12b12b12br------------------|
|-10h12---10h12---10h12--------------------------------------------------------------------|
|------------------------------------------------------------------------------------------|

|-12--12-14-12-12-12-12-12-12-12-12-12-12-12-12-12-12-12-12-12-12-12-12-12-12-12-12-12-12--|
|-15b----------15b---15b---15b---15b---15b---15b---15b---15b---15b---15b---15b---15b15b15b-|
|------------------------------------------------------------------------------------------|
|------------------------------------------------------------------------------------------|
|------------------------------------------------------------------------------------------|
|------------------------------------------------------------------------------------------|

|------------------------------------------------------------------------------------------|
|-13-15-15b-15-15-13---13-15-15b-15-15-13---------13-15----13-15----13-15----13-15----13-15|
|-------------------14-------------------14-12-14-------14-------14-------14-------14------|
|------------------------------------------------------------------------------------------|
|------------------------------------------------------------------------------------------|
|------------------------------------------------------------------------------------------|

|----------------------12--12--12--12------------------------------------------------------|
|-13-------------------15b-15b-15b-15br----13-15-15b----13-15-15b----13-15-15b----13----13-|
|----14-12----12-14br-------------------14-----------14-----------14-----------14b---14b---|
|----------14------------------------------------------------------------------------------|
|------------------------------------------------------------------------------------------|
|------------------------------------------------------------------------------------------|

|------------------------------------------------------------------------------------------|
|--------------------------------------------------------------------------13-15b-13-15b---|
|-14-12-14-----------------12-14-12-14----12-14-12-14----12-14-14-12-14-14---------------14|
|---------14-12----------14------------14-------------14-----------------------------------|
|---------------15-12-15-------------------------------------------------------------------|
|------------------------------------------------------------------------------------------|

|---------------------------------------------------------------------------15--15--15--15-|
|-13-15b-13-15b----13-15b-13-15b----13-15b-13-15b----13-15b-15bTR----17bTRb-17b-17b-17b-17b|
|---------------14---------------14---------------14---------------------------------------|
|------------------------------------------------------------------------------------------|
|------------------------------------------------------------------------------------------|
|------------------------------------------------------------------------------------------|

|------------------------------------------------------------------------------|
|------------------------------------------------------------------------------|
|------------------------------------------------------------------------------|
|---2------12/11-12------12------12/11-12------10-9----------10-9------------10|
|-/-0------10/-9-10------10------10/-9-10----0------0-10-9-0------0-10-9-0-0-10|
|-----------------------------------------------------------------------------8|

Bridge 
|---------------------------------------------------------------------------------------|
|---------------------------------------------------------------------------------------|
|---------------------------------------------------------------------------------------|
|-12-121212-1212-1212-12121212-12-121212-1212-1212-12121212-/14-14-14-12-14-14--12/14\12|
|-10-101010-1010-1010-10101010-10-101010-1010-1010-10101010-/12-12-12-10-12-12--10/12\10|
|---------------------------------------------------------------------------------------|

|----------------------------------------------|
|----------------------------------------------|
|----------------------------------------------|
|-12/14-14-14-14\12-12-12/14-14-14-14-12/14\12-|
|-10/12-12-12-12\10-10-10/12-12-12-12-10/12\10-|
|----------------------------------------------|

|---------------------------------------------------------------------------------------|
|---------------------------------------------------------------------------------------|
|---------------------------------------------------------------------------------------|
|-12-121212-1212-1212-12121212-12-121212-1212-1212-12121212-/14-14-14-12-14-14--12/14\12|
|-10-101010-1010-1010-10101010-10-101010-1010-1010-10101010-/12-12-12-10-12-12--10/12\10|
|---------------------------------------------------------------------------------------|

|-------------------------------------|
|-------------------------------------|
|-------------------------------------|
|--10-9----------10-9------------10---|
|0------0-10-9-0------0-10-9-0-0-10---|
|---------------------------------8---|

|------------------------------------------------------------------------|
|------------------------------------------------------------------------|
|------12~-----------------------12~----------------12~------------------|
|------10~------12\11-12\11------10~--------12------10~------12/11-12/11-|
|-0000----0-000-10\9--10\9--0000----0-00000-10-0000----0-000-10/9--10/9--|
|------------------------------------------------------------------------|

|------------------------------------|
|------------------------------------|
|------------------------------------|
|---10-9----------10-9------------10-|
|-0------0-10-9-0------0-10-9-0-0-10-|
|----------------------------------8-|

|-------------------------------------------------------------------------|
|-------------------------------------------------------------------------|
|-------------------------------------------------------------------------|
|------/10~----------------------/10~-----------------/10~----------------|
|-0000------0-000-10p9-10p9-0000------0-00000-10-0000-----0-000-10p9-10p9-|
|-------------------------------------------------------------------------|

|------------------------------------|
|------------------------------------|
|------------------------------------|
|---10-9----------10-9------------10-|
|-0------0-10-9-0------0-10-9-0-0-10-|
|----------------------------------8-|

Chorus

Outro x2                                                                          end on
|-----------------------------------------------------------------------------------|----|
|-----------------------------------------------------------------------------------|----|
|-----------------------------------------------------------------------------------|----|
|---------------------------------------------------10-9----------10-9------------10|--2-|
|-00-00-00-00--00-00-00-00--/1212-1212-1212-1212--0------0-10-9-0------0-10-9-0-0-10|--2-|
|----------------------------------------------------------------------------------8|--0-|
PM.. .. .. ..  .. .. .. ..


************************************

| /   slide up
| \   slide down
| h   hammer-on
| p   pull-off
| ~   vibrato
| +   harmonic
| x   Mute note
| b   Bend
| pb  Pre-bend
| br  Bend release
| pbr Pre-bend release
| brb Bend release bend
| TR  trill
************************************
Tap to rate this tab
# A B C D E F G H I J K L M N O P Q R S T U V W X Y Z