Song name
# A B C D E F G H I J K L M N O P Q R S T U V W X Y Z

Kyuss - Phototropic tab

Phototropic

Kyuss

Tuning:C F Bb Eb G C

Tabbed by: Brownbear93

This song is kinda tricky so i tried to label the time when each part comes in. 
Feel free to comment any corrections

Guitar 1:                                x5
|------|-----------------------------------|
|------|-----------------------------------|
|------|-------9--9----------9---9p7--7----|
|------|-------9-----9-------9---9p7--7----|
|------|---7---7--------7----7---7---------|
|--10/-|---0--------------0----------------|

 0:34
|--------------------------------------|---------------------------------------|
|--------------------------------------|---------------------------------------|
|-------9--9----------9---9p7--7--6----|------9--9----------9---9p7--7---9--10-|
|-------9-----9-------9---9p7--7-----7-|------9-----9-------9---9p7------------|
|---7---7--------7----7----------------|--7---7--------7----7------------------|
|---0--------------0-------------------|--0--------------0---------------------|

0:47
|--------------------------------------|---------------------------------------|
|--------------------------------------|---------------------------------------|
|-------9--9----------9---9p7--7--9----|------9--9----------9---9p7--7---7-7---|
|-------9-----9-------9-------------9--|------9-----9-------9------------------|
|---7---7--------7----7----------------|--7---7--------7----7------------------|
|---0--------------0-------------------|--0--------------0---------------------|

1:00
|----------------------------------------|--------------------------------------------------|
|----------------------------------------|----------------------------7-----7h8---7h8---7h8-|
|-------9--9----------9---9p7--7--7-6----|------9--9----------9---7h9-----9-----9-----9-----|
|-------9-----9-------9---------------7--|------9-----9-------9-----------------------------|
|---7---7--------7----7------------------|--7---7--------7----7-----------------------------|
|---0--------------0---------------------|--0--------------0--------------------------------|

1:12
|------------------------------------------------|------------------------------------------|
|------------------------------------------------|------------------------------------------|
|-------9--9----------9---7h9-------7h9----------|------9--9----------9---7---7-7--/7-7-7-7-|
|-------9-----9-------9-------9---9-----9--7-9---|------9-----9-------9---------------------|
|---7---7--------7----7--------------------------|--7---7--------7----7---------------------|
|---0--------------0-----------------------------|--0--------------0------------------------|

1:25
|--------------------------------------|------------------------------------------------------|
|--------------------------------------|---------------------------7----7h8p7---7--7h8p7---7--|
|-------9--9----------9---9-7-7--6-7---|------9--9----------9--7h9----9-------9----------9----|
|-------9-----9-------9---9----------7-|------9-----9-------9---------------------------------|
|---7---7--------7----7----------------|--7---7--------7----7---------------------------------|
|---0--------------0-------------------|--0--------------0------------------------------------|

1:37
|------------------------------------------------|----------------------------------------|
|------------------------------------------------|----------------------------------------|
|-------9--9----------9--7h9--------7-7-7-7h9----|------9--9----------9--9p7--7--7-7-7--7-|
|-------9-----9-------9------9--7-9-----------9--|------9-----9-------9--9p7--------------|
|---7---7--------7----7--------------------------|--7---7--------7----7--7----------------|
|---0--------------0-----------------------------|--0--------------0----------------------|

1:50
|--------------------------------------|--------------------------------------------------|
|--------------------------------------|--------------------------------8h10-8-7---7------|
|-------9--9----------9--7--7-7-6-7----|------9--9----------9--9p7-7--7----------9---9b---|
|-------9-----9-------9--7-----------7-|------9-----9-------9-----------------------------|
|---7---7--------7----7----------------|--7---7--------7----7-----------------------------|
|---0--------------0-------------------|--0--------------0--------------------------------|

2:03
|-----------------------------------|
|-----------------------------------|
|-------9--9----------9--7--7-7--7--|
|-------9-----9-------9-------------|
|---7---7--------7----7-------------|
|---0--------------0----------------|


Guitar 2:
0:54
|------------/7-----------|
|------7-----------7--8---|x5
|--7h9----9------9--------|
|-------------------------|
|-------------------------|
|-------------------------|

1:31
|------------------------------|-----------/7-----------|
|------7---10brp8-10---8--7----|------7-----------7--8--|
|--7h9----------------------9--|--7h9----9------9-------|
|------------------------------|------------------------|
|------------------------------|------------------------|
|------------------------------|------------------------|

                               x4
|-------------------------------|
|-------7------7------8------7--|
|---7h9----7h9----7h9----7h9----|
|-------------------------------|
|-------------------------------|
|-------------------------------|


Heavy Riff:
|-------------------------------------------|
|-------------------------------------------|
|------9--9---9-9-9-x--7h9-7--7h9-7--7-7----|
|--9---9--9-9-9-9-9-x-----------------------|
|--7---7--7-7-7-7-7-x-----------------------|
|--0---0--0-0-----0-------------------------|

|--------------------------------------------------|
|--------------------------------------------------|
|------9--9---9-9-9-x----7-7-7--7-7-7-7-7-7\6------|
|--9---9--9-9-9-9-9-x--9----------------------7h9--|
|--7---7--7-7-7-7-7-x------------------------------|
|--0---0--0-0-----0--------------------------------|

|---------------------------------------------------|
|----------------------------------8-10-8-7---7-----|
|------9--9---9-9-9-x-----7h9-7--7----------9---9b--|
|--9---9--9-9-9-9-9-x--/9---------------------------|
|--7---7--7-7-7-7-7-x-------------------------------|
|--0---0--0-0-----0---------------------------------|

|-------------------------------------------------|
|-------------------------------------------------|
|------9--9---9-9-9-x----7h9-7---7-7-7-7h9---9-7--|
|--9---9--9-9-9-9-9-x--9-------------------9------|
|--7---7--7-7-7-7-7-x-----------------------------|
|--0---0--0-0-----0-------------------------------|



 "Under light..."
|--------------------------------------------|------------------------------------------------|
|--------------------------------------------|------------------------------------------------|
|------9--9---9-9-9-x--7h9-7--7h9-7--7-7-7-7-|-----9--9---9-9-9-x----7-7-7--7-7-7-7-7-7\6-----|
|--9---9--9-9-9-9-9-x------------------------|-9---9--9-9-9-9-9-x--9----------------------7h9-|
|--7---7--7-7-7-7-7-x------------------------|-7---7--7-7-7-7-7-x-----------------------------|
|--0---0--0-0-----0--------------------------|-0---0--0-0-----0-------------------------------|


 "Go to the..."
|----------------------------------------------------|------------------------------------------|
|--------------------------7----7h8p7---7--7h8p7---7-|------------------------------------------|
|------9--9---9-9-9-x--7h9----9-------9----------9---|-----9--9---9-9-9-x-----7--7h9p7---7-9b-9-|
|--9---9--9-9-9-9-9-x--------------------------------|-9---9--9-9-9-9-9-x-7h9----------9--------|
|--7---7--7-7-7-7-7-x--------------------------------|-7---7--7-7-7-7-7-x-----------------------|
|--0---0--0-0-----0----------------------------------|-0---0--0-0-----0-------------------------|


 "Under light..."
|-------------------------------------------|------------------------------------------------|
|-------------------------------------------|------------------------------------------------|
|------9--9---9-9-9-x--7-7-7--7-7-7-7-7-7-7-|-----9--9---9-9-9-x----7-7-7--7-7-7-7-7-7\6-----|
|--9---9--9-9-9-9-9-x-----------------------|-9---9--9-9-9-9-9-x--9----------------------7h9-|
|--7---7--7-7-7-7-7-x-----------------------|-7---7--7-7-7-7-7-x-----------------------------|
|--0---0--0-0-----0-------------------------|-0---0--0-0-----0-------------------------------|


 "Reach up to..."
|----------------------------------------------------|------------------------------------------|
|--------------------------7----7h8p7---7--7h8p7---7-|------------------------------------------|
|------9--9---9-9-9-x--7h9----9-------9----------9---|-----9--9---9-9-9-x------7-------7---7----|
|--9---9--9-9-9-9-9-x--------------------------------|-9---9--9-9-9-9-9-x--7h9-----7h9---9------|
|--7---7--7-7-7-7-7-x--------------------------------|-7---7--7-7-7-7-7-x-----------------------|
|--0---0--0-0-----0----------------------------------|-0---0--0-0-----0-------------------------|


                                                     
|-----------------------------------------------------|
|--------------------------------------------10h12----|x2
|------9--9-9-9br-7----7h9-9-9-9-10-10-12-12-------9/-|
|--9---9--9-9-9br-7--9--------------------------------|
|--7---7--7-7-7br-5-----------------------------------|
|--0---0----------------------------------------------|

|-------------------------------------------------------|
|--------------------------------------------10h12-12\--|
|------9--9-9-9br-7----7h9-9-9-9-10-10-12-12------------|
|--9---9--9-9-9br-7--9----------------------------------|
|--7---7--7-7-7br-5-------------------------------------|
|--0---0------------------------------------------------|

|-----------------------------------------------------|
|--------------------------------------------10h12----|
|------9--9-9-9br-7----7h9-9-9-9-10-10-12-12-------9/-|
|--9---9--9-9-9br-7--9--------------------------------|
|--7---7--7-7-7br-5-----------------------------------|
|--0---0----------------------------------------------|


3:43
|--------------------------------------------|------------------------------------------------|
|--------------------------------------------|------------------------------------------------|
|------9--9---9-9-9-x--7h9-7--7h9-7--7-7-7-7-|-----9--9---9-9-9-x----7-7-7--7-7-7-7-7-7\6-----|
|--9---9--9-9-9-9-9-x------------------------|-9---9--9-9-9-9-9-x--9----------------------7h9-|
|--7---7--7-7-7-7-7-x------------------------|-7---7--7-7-7-7-7-x-----------------------------|
|--0---0--0-0-----0--------------------------|-0---0--0-0-----0-------------------------------|

|---------------------------------------------------|
|----------------------------------8-10-8-7---7-----|
|------9--9---9-9-9-x-----7h9-7--7----------9---9b--|
|--9---9--9-9-9-9-9-x--/9---------------------------|
|--7---7--7-7-7-7-7-x-------------------------------|
|--0---0--0-0-----0---------------------------------|

|-----------------------------------------------------------------|
|-----------------------------------------------------------------|
|------9--9---9-9-9-x----7-7-7-7--7h9p7---7-7h9p7---7-7h9p7---7---|
|--9---9--9-9-9-9-9-x--9----------------9---------9---------9-----|
|--7---7--7-7-7-7-7-x---------------------------------------------|
|--0---0--0-0-----0-----------------------------------------------|


 "Found the..."
|--------------------------------------------|------------------------------------------------|
|--------------------------------------------|------------------------------------------------|
|------9--9---9-9-9-x--7h9-7--7h9-7--7-7-7-7-|-----9--9---9-9-9-x----7-7-7--7-7-7-7-7-7\6-----|
|--9---9--9-9-9-9-9-x------------------------|-9---9--9-9-9-9-9-x--9----------------------7h9-|
|--7---7--7-7-7-7-7-x------------------------|-7---7--7-7-7-7-7-x-----------------------------|
|--0---0--0-0-----0--------------------------|-0---0--0-0-----0-------------------------------|


 "Found the...."
|---------------------------------------------------|---------------------------------------------|
|----------------------------------8-10-8-7---7-----|---------------------------------------------|
|------9--9---9-9-9-x-----7h9-7--7----------9---9b--|------9--9---9-9-9-x----7-7-7---7-------7----|
|--9---9--9-9-9-9-9-x--/9---------------------------|--9---9--9-9-9-9-9-x--9-------9---9---9---9--|
|--7---7--7-7-7-7-7-x-------------------------------|--7---7--7-7-7-7-7-x-------------------------|
|--0---0--0-0-----0---------------------------------|--0---0--0-0-----0---------------------------|


|--------------------------------------------|------------------------------------------------|
|--------------------------------------------|------------------------------------------------|
|------9--9---9-9-9-x---7-7-7---7-------7----|-----9--9---9-9-9-x----7-7-7--7-7-7-7-7-7\6-----|
|--9---9--9-9-9-9-9-x-9-------9---9---9---9--|-9---9--9-9-9-9-9-x--9----------------------7h9-|
|--7---7--7-7-7-7-7-x------------------------|-7---7--7-7-7-7-7-x-----------------------------|
|--0---0--0-0-----0--------------------------|-0---0--0-0-----0-------------------------------|

|---------------------------------------------------|---------------------------------------------|
|----------------------------------8-10-8-7---7-----|---------------------------------------------|
|------9--9---9-9-9-x-----7h9-7--7----------9---9b--|------9--9---9-9-9-x----7-7-7---7---7-9-9b-9-|
|--9---9--9-9-9-9-9-x--/9---------------------------|--9---9--9-9-9-9-9-x--9-------9---9----------|
|--7---7--7-7-7-7-7-x-------------------------------|--7---7--7-7-7-7-7-x-------------------------|
|--0---0--0-0-----0---------------------------------|--0---0--0-0-----0---------------------------|

Ending Chord:
|-------|
|-------|
|---9---|
|---9---|
|---7---|
|---0---|


************************************

| /   slide up
| \   slide down
| h   hammer-on
| p   pull-off
| ~   vibrato
| +   harmonic
| x   Mute note
| b   Bend
| pb  Pre-bend
| br  Bend release
| pbr Pre-bend release
| brb Bend release bend

************************************
Tap to rate this tab
# A B C D E F G H I J K L M N O P Q R S T U V W X Y Z