Guitaretab - guitar tabs
Song name
# A B C D E F G H I J K L M N O P Q R S T U V W X Y Z

Kyuss - Supa Scoopa And Mighty Scoop tab

-------------------------------------------------------------------------------
                      Kyuss – Supa Scoopa And Mighty Scoop
-------------------------------------------------------------------------------

Tabbed by: brian_s
Email: branimir.sremec@kc.t-com.hr


INTRO/1st VERSE:         Don't try to take me away…
C-------------------------------------|
G-------------------------------------|
D#------------------------------------|
A#------------------------------------|
F----0-0--0x-0x-0x----0-0—-0x-0x-0x---|
C-------------------------------------|

C-----------------------------------------------|
G-----------------------------------------------|
D#----------------------------------------------|
A#----------------------------------------------|       PLAY THE INTRO 6x
F----12-12—-12x-12x-12x----12-12—-12x-12x-12x---|
C-----------------------------------------------|

C-----------------------------------------------|
G-----------------------------------------------|
D#----------------------------------------------|
A#---10-10—-10x-10x-10x----10-10—-10x-10x-10x---|
F-----------------------------------------------|
C-----------------------------------------------|

C------------------------------------------|
G------------------------------------------|
D#-----------------------------------------|
A#---12-12—-12x-12x-12x----9-9—-9x-9x-9x---|
F------------------------------------------|
C------------------------------------------|


2nd VERSE:              Fight me lately, tried to someone…
C-------------------------------------------------------------------------|
G-------------------------------------------------------------------------|
D#------------------------------------------------------------------------|   4x
A#--7-7-7-7-7-7-7-7-7-7-7-7-7--10-10-10-10-10-10-10--12-12-12-12--9-9-9-9-|
F---7-7-7-7-7-7-7-7-7-7-7-7-7--10-10-10-10-10-10-10--12-12-12-12--9-9-9-9-|
C---5-5-5-5-5-5-5-5-5-5-5-5-5--8--8--8--8--8--8--8---10-10-10-10--7-7-7-7-|


CHORUS:                And you know…
C-----------------------------------------------|
G-----------------------------------------------|
D#----------------------------------------------|
A#---7-7-7-7-7-7-7-7-7-7------------------------|
F----7-7-7-7-7-7-7-7-7-7---10-------10p0-8p10---|
C----5-5-5-5-5-5-5-5-5-5------8-8---------------|

C-------------------------------------|
G-------------------------------------|
D#-------7h9-9------------------------|   4x
A#------------------------------------|
F----0-0---------10-------10p0-8p10---|
C-------------------8-8---------------|


POST CHORUS:
C-----------------------------------|
G-----------------------------------|
D#-----------------10h12-12---------|   8x
A#--------------10----------10-10---|
F----0-0—-10h12---------------------|
C-----------------------------------|


3nd VERSE:              Hangin' low today, I replace the highway…
C-------------------------------------------------------------------------|
G-------------------------------------------------------------------------|
D#------------------------------------------------------------------------|   6x
A#--7-7-7-7-7-7-7-7-7-7-7-7-7--10-10-10-10-10-10-10--12-12-12-12--9-9-9-9-|
F---7-7-7-7-7-7-7-7-7-7-7-7-7--10-10-10-10-10-10-10--12-12-12-12--9-9-9-9-|
C---5-5-5-5-5-5-5-5-5-5-5-5-5--8--8--8--8--8--8--8---10-10-10-10--7-7-7-7-|


CHORUS:                And you know…
C-----------------------------------------------|
G-----------------------------------------------|
D#----------------------------------------------|
A#---7-7-7-7-7-7-7-7-7-7------------------------|
F----7-7-7-7-7-7-7-7-7-7---10-------10p0-8p10---|
C----5-5-5-5-5-5-5-5-5-5------8-8---------------|
[ Tab from: http://www.guitaretab.com/k/kyuss/40371.html ]
C-------------------------------------|
G-------------------------------------|
D#-------7h9-9------------------------|   4x
A#------------------------------------|
F----0-0---------10-------10p0-8p10---|
C-------------------8-8---------------|


POST CHORUS:
C-----------------------------------|
G-----------------------------------|
D#-----------------10h12-12---------|   14x
A#--------------10----------10-10---|
F----0-0—-10h12---------------------|
C-----------------------------------|


PRE SOLO:
C-------------------------------------------|
G-------------------------------------------|
D#----------------------12h14---------------|   4x
A#-----------------10-----------12b-12p10---|
F----0--0----10h12--------------------------|
C-------------------------------------------|


SOLO:
03:17
C----------------------------------------|
G----------------------------------------|
D#---------------------------------------|
A#---12b—--10h12p10-----12b—--10h12p10---|
F----------------------------------------|
C----------------------------------------|

03:28
C----------------------------------------------------|
G----13-13b-13b-13b—13b-13b-13b-13b---13b-10----10---|
D#-------------------------------------------12------|
A#---------------------------------------------------|
F----------------------------------------------------|
C----------------------------------------------------|

03:38
C---------------------------------------------------------------------|
G----13br-10----13br-10----13br-10----13br-10----13br-10----13br-10---|
D#--------------------------------------------------------------------|
A#--------------------------------------------------------------------|
F---------------------------------------------------------------------|
C---------------------------------------------------------------------|

03:49
C-------------------------------------------------|
G----13p10—13p10------13p10—13p10------13p10------|
D#---------------12---------------12---------12---|  2x
A#------------------------------------------------|
F-------------------------------------------------|
C-------------------------------------------------|

04:04
C----17-17--20b---17h20p17----17-17---|
G--------------------------20---------|
D#------------------------------------|  2x
A#------------------------------------|
F-------------------------------------|
C-------------------------------------|

04:10
C----------------------------------|------------------------------|
G----20b-20b-20b-20b-20b-20b-20b---|---20--17----20p17-20p17------|
D#---------------------------------|-------------------------19---|  2x
A#---------------------------------|------------------------------|
F----------------------------------|------------------------------|
C----------------------------------|------------------------------|

04:28
C------------------------------------------------------------|
G------------------------------------------------------------|
D#---19~~17~~-19~~17~~-19~~17~~-19~~17~~-19~~17~~-19~~17~~---|
A#-----------------------------------------------------------|
F------------------------------------------------------------|
C------------------------------------------------------------|

C-------------------------------------------|
G-------------------------------------------|
D#----------------------12h14---------------|   4x
A#-----------------10-----------12b-12p10---|
F----0--0----10h12--------------------------|
C-------------------------------------------|

C----------|
G----------|
D#---------|  18x
A#---7-7---|
F----7-7---|
C----5-5---|


br  =  bend release
b   =  bend
h   =  hammer-on
p   =  pull off
~   =  vibratio
x   =  mute
Related for Supa Scoopa And Mighty Scoop tab
×
Supa Scoopa And Mighty Scoop