Song name
# A B C D E F G H I J K L M N O P Q R S T U V W X Y Z

Kyuss - Asteroid tab

Help us improve GuitareTab! Take a short survey!
|------------------------------------------------------|
|------------------------------------------------------|
|------------------------------------------------------|
|------------------------------------------------------|
|----7-----7---9-7---7-7-----7-5-/10-7---7-----7---9-7-|
|--0---0-0---8---0-0-----0-0-----------0---0-0---8---0-|

|-------------------------|
|-------------------------|
|-------------------------|
|-------------------------|
|---10h12p10-10\9-9\7-5-4-|
|-0-----------------------|


|-----------------------|
|-----------------------|
|-----------------------|
|-----------------------|
|-------12----11----7-6-|
|--0-00-10-00-9--00-5-4-| 
Related for Asteroid tab