Guitaretab - guitar tabs
Song name
# A B C D E F G H I J K L M N O P Q R S T U V W X Y Z

Kyuss - Son Of A Bitch tab

God Damn, Son of a Bitch  Kyuss
From the album Wretch
Tabbed by Matt WV

Pick hand muting  P.M.===
Slide down - \
Vibrato  v

Tuning C F A# D# G c

Verse
c |----------------------------------------------------------| 
G |----------------------------------------------------------| 
D#|---------9v------------7v--------------------------7v-7v-|
A#|---------7v------------5v------------8v------------5v-5v-|
F |-0-0-0-0-------0-0-0-0-------0-0-0-0-6v----0-0-0-0-3v-3v-|
C |----------------------------------------------------------|
    P.M.===       P.M.===       P.M.===       P.M.===
[ Tab from: http://www.guitaretab.com/k/kyuss/47238.html ]
Chorus
c |------------------------------------------------------------------| 
G |------------------------------------------------------------------| 
D#|-----------9v----7v--------------------------9v----7v-------------|
A#|-----------7v----5v----8\7-8\5--------------7v----5v----8\7-8\5-|
F |-0---0--0--------------6\5-6\3----0---0--0--------------6\5-6\3-|
C |------------------------------------------------------------------|

Middle Part
c |----------------------------------| 
G |----------------------------------| 
D#|----------------------------------|
A#|-----5------------5---------2---2-|
F |-0-0---3-2-0----0---3-2-0---0---0-|
C |----------------------------------|

c |----------------------------| 
G |----------------------------| 
D#|----------------------------|
A#|---5-----------5-----5------|
F |-0---3-2-0---0---3-2---3-2--|
C |----------------------------|
Related for Son Of A Bitch tab