Song name
# A B C D E F G H I J K L M N O P Q R S T U V W X Y Z

Kyuss - Flip The Phase tab

Help us improve GuitareTab! Take a short survey!
Artist: Kyuss
Song: Flip the Phase
Guitarist: Joshua Homme
Standard Tuning (EADGBe)

Intro
e|------------------------------------------------------------------|
B|------------------------------------------------------------------|
G|------------------------------------------------------------------|
D|------------------------------------------------------------------|
A|--6--666666666666666666666666666666666----------------------------|
E|--4--444444444444444444444444444444444----------------------------|

Verse Riff
e|------------------------------------------------------------------|
B|------------------------------------------------------------------|
G|------------------------------------------------------------------|
D|--------------------5--------4------------------------------------|
A|--6--66666666666666-3-555555-2-444444-----------------------------|
E|--4--44444444444444---333333---222222-----------------------------|


Chorus Riff

e|------------------------------------------------------------------|
B|------------------------------------------------------------------|
G|------------------------------------------------------------------|
D|--------------5--555555-------------------------------------------|
A|---6--666666--3--333333--5--55555555555555-------------------------|
E|---4--444444-------------3--33333333333333-------------------------|

Solo

e|--------------------------------------------------------------|
B|--------------------------------------------------------------|
G|--------------------------------------------------------------|
D|--------10~~~---10-13-10~~~-12bu13bd12-------11bu12bd11-------|
A|--9h11--------------------------------14~~~-------------13~~~-|
E|--------------------------------------------------------------|

e|------------------------------------------------------------------------|
B|------------------------------------------------------------------------|
G|----------11-8---11-8----8---88—11h8---8~-------------------------------|
D|-----10~~-----10------10---10-------10-----12bu13bd12----11bu12bd11-----|
A|9h11-------------------------------------------------14~~----------13~~~|
E|------------------------------------------------------------------------|

e|---------------------------------------------------------------------|
B|-------13---13---13---13---13--13----12---12--12---11---11--11-------|
G|--15---15bu-15bu-15bu-15bu-15bu15bu—-14bu-14bu14bu-13bu-13bu13bu-----|
D|---------------------------------------------------------------------|
E|---------------------------------------------------------------------|
A|---------------------------------------------------------------------|


e|---------------------------------------------------------------------|
B|-------13---13---13---13---13--13----12---12--12---11---11--11-------|
G|--15---15bu-15bu-15bu-15bu-15bu15bu—-14bu-14bu14bu-13bu-13bu13bu-----|
D|---------------------------------------------------------------------|
E|---------------------------------------------------------------------|
A|---------------------------------------------------------------------|
Related for Flip The Phase tab