Guitaretab - guitar tabs
Song name
# A B C D E F G H I J K L M N O P Q R S T U V W X Y Z

Kyuss - Isolation Desolation tab

-------------------------------------------------------------------------------
                          ISOLATION DESOLATION - Kyuss
-------------------------------------------------------------------------------

Tabbed by: brian_s
Email: branimir.sremec@kc.t-com.hr



ACOUSTIC INTRO:
C#------------------------------------------------------------------|
G#------------------------------------------------------------------|
E---------------------0---------------------------------------------|
B---------2---------2---2---2-------0-----0---0------0-----0--------|
F#------2---2-----2-------2-------2-----2----------0-----0----------|
C#---0----------0---------------3-----3-----3----2-----2-----3-2----|

C#------------------------------------------------------------------|
G#------------------------------------------------------------------|
E-------------------------------------------------------------------|
B---------2---------2-2-0h2p0------0-----0---0------0-----0--------|
F#------2---2-----2---------------2-----2----------0-----0----------|
C#---0----------0---------------3-----3-----3----2-----2-----3-2----|


Now we have some dual guitars

Acoustic guitar
C#------------------0---------------------------------------------|
G#----------------------------------------------------------------|
E-----------------------------------------------------------------|
B---------2-----------2-0--------0-----0---0------0-----0---------|
F#------2---2-----2------------2-----2----------0-----0-----------|
C#---0----------0------------3-----3-----3----2-----2------3-2----|

Electric guitar
C#----------------------------------------------------------------|
G#----------------------------------------------------------------|
E-----------------------------------------------------------------|
B-----------------------------------------------------------------|
F#---------------9-9-9-10-9-7-------------------------------------|
C#----------------------------------------------------------------|



VERSE 1:
Acoustic guitar
C#-----------------------------------------------------------------|
G#-----------------------------------------------------------------|
E------------------------------------------------------------------|
B---------2---------2-2-0h2p0------0-----0---0------0-----0-------|
F#------2---2-----2---------------2-----2----------0-----0---------|
C#---0----------0---------------3-----3-----3----2-----2-----3-2---|

Electric guitar
C#-----------------------------------------------------------------|
G#-----------------------------------------------------------------|
E------------------------------------------------------------------|
B------------------------------------------------------------------|
F#-----/7----------------------------------------------------------|
C#-----------------------------------------------------------------|


Acoustic guitar
C#------------------0---------------------------------------------|
G#----------------------------------------------------------------|
E-----------------------------------------------------------------|
B---------2-----------2-0--------0-----0---0------0-----0---------|
F#------2---2-----2------------2-----2----------0-----0-----------|
C#---0----------0------------3-----3-----3----2-----2------3-2----|
[ Tab from: http://www.guitaretab.com/k/kyuss/63590.html ]
Electric guitar
C#----------------------------------------------------------------|
G#----------------------------------------------------------------|
E-----------------------------------------------------------------|
B-----------------------------------------------------------------|
F#----------------7-7-7-7-5---------------------------------------|
C#----------------------------------------------------------------|


Acoustic guitar
C#--------------------0-----------0-----0-----------------------|
G#--------------------------------------------------------------|
E---------------------------------------------------------------|
B---------2---------2---2-0--------------------0-0-0-0-0-0-0----|
F#------2---2-----2-------------2-----2--------0-0-0-0-0-0-0----|
C#---0----------0-------------3-----3-----3----2-2-2-2-2-2-2----|

Electric guitar
C#--------------------------------------------------------------|
G#--------------------------------------------------------------|
E---------------------------------------------------------------|
B---------------------------------------------------------------|
F#------------------/7----------------------------7-------------|
C#--------------------------------------------------------------|



C#---------------------------------------------------------------------|
G#---------------------------------------------------------------------|
E----------------------------------------------------------------------|
B----2-2-2-2-2-2-2-2-2-2-2-2-2-2-2-2-2-2----5-5-5-5-5-5--4-4-4-4-4-4---|
F#---2-2-2-2-2-2-2-2-2-2-2-2-2-2-2-2-2-2----5-5-5-5-5-5--4-4-4-4-4-4---|
C#---0-0-0-0-0-0-0-0-0-0-0-0-0-0-0-0-0-0----3-3-3-3-3-3--2-2-2-2-2-2---|

C#-----------------------|
G#-----------------------|
E------------------------|
B----2-2-2-2-2-2-2-2-2---|
F#---2-2-2-2-2-2-2-2-2---|
C#---0-0-0-0-0-0-0-0-0---|



CHORUS:
C#----------------------------------------------------|
G#----------------------------------------------------|
E----5-5-5-5-5--2-2-2---2-----------------------------|
B----5-5-5-5-5--2-2-2---2---2-2-2-2-2-2-2-2-2-2-2-2---|
F#---3-3-3-3-3--0-0-0---0---2-2-2-2-2-2-2-2-2-2-2-2---|
C#--------------------3-----0-0-0-0-0-0-0-0-0-0-0-0---|

C#--------------------------------------------------------|
G#------------------------------------17-17-17-------------|
E----5-5-5-5-5--2-2-2---2----------------------14br12------|
B----5-5-5-5-5--2-2-2---2---2-2-2--14-----------------14---|
F#---3-3-3-3-3--0-0-0---0---2-2-2--------------------------|
C#--------------------3-----0-0-0--------------------------|

C#------------------------------------------------------|
G#------------------------------------------------------|
E----5-5-5-5-5--2-2-2---2--------------------------12---|
B----5-5-5-5-5--2-2-2---2---2-2-2--14-14-14--12h14------|
F#---3-3-3-3-3--0-0-0---0---2-2-2-----------------------|
C#--------------------3-----0-0-0-----------------------|

C#----------------------------------------------------|
G#----------------------------------------------------|
E----5-5-5-5-5--2-2-2---2-----------------------------|
B----5-5-5-5-5--2-2-2---2---2-2-2-2-2-2-2-2-2-2-2-2---|
F#---3-3-3-3-3--0-0-0---0---2-2-2-2-2-2-2-2-2-2-2-2---|
C#--------------------3-----0-0-0-0-0-0-0-0-0-0-0-0---|



Play verse riff 2x



VERSE
Play verse riff 2x


CHORUS
Play chorus 



Play verse riff 2x



VERSE
Play verse riff 2x


CHORUS:
Play chorus 


OUTRO:
C#----------------------------------------|
G#----------------------------------------|
E-----------------------------------------|
B-----9--9---10-10-10-----7--7---9-9-9----|
F#----7--7----8--8--8-----5--5---7-7-7----|
C#----------------------------------------|




br  =  bend release
h   =  hammer-on
/   =  slide

Related for Isolation Desolation tab