Song name
# A B C D E F G H I J K L M N O P Q R S T U V W X Y Z

Kyuss - 50 Million Year Trip tab

-------------------------------------------------------------------------------
                           Kyuss – 50 million year trip
-------------------------------------------------------------------------------

Tabbed by: brian_s
Email: branimir.sremec@kc.t-com.hr


C----------------------------------------------------|
G----------------------------------------------------|
D#---------------------------------------------------| 2x
A#---------------------------------------------------|
F---/12-12-12-12-12-12-12-12-12-12-12-12---0-0-0-0---|
C----------------------------------------------------|

C-------------------------------------------------------------------|
G-------------------------------------------------------------------|
D#------------------------------------------------------------------|
A#------------------------------------------------------------------|
F---/15-15-15-15-15-15-15-15-15-15-15-15-15-15-15-15-15---0-0-0-0---|
C-------------------------------------------------------------------|

C--------------------------------------------------------------------|
G--------------------------------------------------------------------|
D#-------------------------------------------------------------------|
A#-------------------------------------------------------------------|
F---/15-15-15-15-15-15-15-15-15-15-15-15--15-17-17-17--15-17-17-17---|
C--------------------------------------------------------------------|

00:16
C---------------------------------------------------------|
G---------------------------------------------------------|
D#--------------------------------------------------------| 2x   |
A#---14--14-14----14--14-14-14----14--14-14----12-14-12---|      |
F---------------------------------------------------------|      |
C---------------------------------------------------------|      |  2x
                                                                 |
C--------------------------------------------------------|       |
G--------------------------------------------------------|       |
D#-------------------------------------------------------|  2x   |
A#---17-17-17-17-17-17-17-17-17---19-19-19-19-19-19-19---|     
F--------------------------------------------------------|
C--------------------------------------------------------|


00:43
C---------------------------------------------------------------|
G---------------------------------------------------------------|
D#--------------------------------------------------------------|
A#--------------------------------------------------------------|
F------/12-12-12-12-12-12-12-12-12-12-12-12-12-12-12-12-12-12---|
C---------------------------------------------------------------|

00:57
C---------------------------------------------------------------------|
G---------------------------------------------------------------------|
D#--------------------------------------------------------------------|
A#--------------------------------------------------------------------|
F---/15-15-15-15-15-15-15---/15-15-15-15-15-15-15/17-17-17-17-17-17---|
C---------------------------------------------------------------------|

01:04
C---------------------------|
G---------------------------|
D#--------------------------|
A#---7---7---5-5-5----------|
F----7---7---5-5-5------3---|
C----5---5---3-3-3—3h5------|

01:15
C----------------------------|
G----------------------------|
D#---------------------------| 2x
A#--7---7----5---5---5-------|
F---7---7------7---7---7-7---|
C---5---5--------------------|

C---------------------------------------------------|
G---------------------------------------------------|
D#---5-5-5-5-5-5-5-5-5-5------8-8-8-8-8-8-8-8-8-8---|
A#---5-5-5-5-5-5-5-5-5-5------8-8-8-8-8-8-8-8-8-8---|
F----3-3-3-3-3-3-3-3-3-3------6-6-6-6-6-6-6-6-6-6---|
C---------------------------------------------------|


01:24
C----------(play 2x)-----------I-----------(play 1x)------------|
G------------------------------I--------------------------------|
D#-----------------------------I---5-5-5-5-5-5-5--8-8-8-8-8-8---|  3x
A#--7-7-7--8-8-8-8-5-5-5-5-5---I---5-5-5-5-5-5-5--8-8-8-8-8-8---|
F---7-7-7----------------------I---3-3-3-3-3-3-3--6-6-6-6-6-6---|
C---5-5-5----------------------I--------------------------------|

01:54
C--------------------------|
G--------------------------|
D#-------------------------|  5x
A#---7---7---5-5-5---------| 
F----7---7---5-5-5-----3---|
C----5---5---3-3-3-3h5-----|

02:07
C----------(play 2x)-----------I-----------(play 1x)------------|
G------------------------------I--------------------------------|
D#-----------------------------I---5-5-5-5-5-5-5--8-8-8-8-8-8---|  3x
A#--7-7-7--8-8-8-8-5-5-5-5-5---I---5-5-5-5-5-5-5--8-8-8-8-8-8---|
F---7-7-7----------------------I---3-3-3-3-3-3-3--6-6-6-6-6-6---|
C---5-5-5----------------------I--------------------------------|

02:37
C--------------------------|
G--------------------------|
D#-------------------------|  5x
A#---7---7---5-5-5---------| 
F----7---7---5-5-5-----3---|
C----5---5---3-3-3-3h5-----|



03:01
“Clean part“

C----------------------------------------------------------------|
G----------------------------------------------------------------|
D#---2-2-2-2-2-2-2-2-2-2-2-2--5-5-5-5-5-5--7-7-7-7-7/9-9-9-9-9---|
A#---2-2-2-2-2-2-2-2-2-2-2-2--5-5-5-5-5-5--7-7-7-7-7/9-9-9-9-9---|
F----0-0-0-0-0-0-0-0-0-0-0-0--3-3-3-3-3-3--5-5-5-5-5/7-7-7-7-7---|
C----------------------------------------------------------------|


Solo:

04:00
C----------------------------------------------------------------|
G----------------------------------------------------------------|
D#---------------------------------------------------------------|
A#---------------------------------------------------------------|
F---12---12-12-12------12-12-10-10------10-10-9-9-10-10-9-9-10---|
C----------------------------------------------------------------|

C--------------------------------|-------10-8--------|
G--------------------------------|---10-------10-8---|
D#-------------------------------|-------------------|
A#-------------------------------|-------------------|
F---12---10-12-10-----10-12-10---|-------------------|
C--------------------------------|-----(play 3x)-----|

C-------------------------------------------|
G----7h8h10-7h8h10-7h8h10-7h8h10-7h8h10-7---|
D#------------------------------------------|
A#------------------------------------------|
F-------------------------------------------|
C-------------------------------------------|

C---------------------------------------------------------------------|
G---------------------------------------------------------------------|
D#---7--9-------7--7--9-------7-7-7h9h10-9-----7—7h9h10-9p7h9p7-7-7---|
A#---------7-------------7-----------------7--------------------------|
F---------------------------------------------------------------------|
C---------------------------------------------------------------------|

04:46
C---------------------------------------------------------------------|
G---------------------------------------------------------------------|
D#---7--7-7-7--6-6-6-6--7-7-7-7-6-6-6-6---6--6-7-6----6--6-7-6--------|
A#-------------------------------------------------------------7------|
F---------------------------------------------------------------------|
C---------------------------------------------------------------------|

04:55
C---------10-8---------------------------------------|
G-----10-------10-8----------------------------------|
D#---------------------------(repeat till the end)---|
A#---------------------------------------------------|
F----------------------------------------------------|
C----------------------------------------------------|



h   =  hammer-on
p   =  pull off
/   =  slide
Tap to rate this tab
# A B C D E F G H I J K L M N O P Q R S T U V W X Y Z