Song name
# A B C D E F G H I J K L M N O P Q R S T U V W X Y Z

Kyuss - Gloria Lewis tab

-------------------------------------------------------------------------------
			     Gloria Lewis - Kyuss
-------------------------------------------------------------------------------
Tabbed by: Dave M. (HC-Deathroll)

Tuning: C Standard (2 Steps Down)

Main Riff:

(Listen to the song for rhythm.)

----4---------------------------|
----7b9-------------------------|
--------------------------------|
6-6-----6-6-6-6-6-6-7-7-6-6-6-6-|
6-6-----6-6-6-6-6-6-5-7-4-4-4-4-|
4-4-----4-4-4-4-4-4---5---------|

Lead Riff (Chorus?):

---------------------------|
---------------------------|
-11-11-8-11-8-11-8-11-8/13-|
---------------------------|
---------------------------|
---------------------------|

Intro (Feedback)
Main Riff 20x
Chorus 8x
Main Riff 8x
Chorus 4x

| /  slide up
| \  slide down
| h  hammer-on
| p  pull-off
| ~  vibrato
| +  harmonic
| x  Mute note
===============================================================================
Tap to rate this tab
# A B C D E F G H I J K L M N O P Q R S T U V W X Y Z